PrimaNota.ru - самый крупный в мире бесплатный архив песенных текстов, аккордов, табулатур и нот


Five Iron Frenzy - Blizzards And Bygones - таба, видео

Регистрация Запомнить меня
Войти через:  Facebook Google Twitter Vk Yandex Mail.ru

Five Iron Frenzy - Blizzards And Bygones - таба, видео

Печатать
Просмотров: 86
Hey, everyone. Anyways, I'm new to FIF's music, but I love it already. At first glance, this song sucks, but 
after the second or third listen it's awesome! Here you go, enjoy! (This can be played in standard but drop D 
is easier)

Intro

e|-5---5---5---5---5---5---5---5---|---15--15--------------------------------------15--|
B|---6---6---6---6---6---6---6---6-|-16--16--16-15-16-15-16-15--15--16-----------18----|
G|---------------------------------|--------------------------17--17--17-16-17-16------|
D|---------------------------------|---------------------------------------------------|
A|---------------------------------|---------------------------------------------------|
D|---------------------------------|---------------------------------------------------|

e|--15--15--------------------------------------15-|-----------------------------------|
B|16--16--16-15-16-15-16-15--15--16-----------18---|-----------------------------------|
G|-------------------------17--17--17-16-17-16-----|5555555555555555-------------------|
D|-------------------------------------------------|5555555555555555-7777777777777777--|
A|-------------------------------------------------|3333333333333333-7777777777777777--|
D|-------------------------------------------------|-----------------7777777777777777--|

e|----------------------------------|-----------------------------------|
B|----------------------------------|-----------------------------------|
G|----------------------------------|-5555555555555555------------------|
D|5555555555555555-3333333333333333-|-5555555555555555-7777777777777777-|
A|5555555555555555-3333333333333333-|-3333333333333333-7777777777777777-|
D|5555555555555555-3333333333333333-|------------------7777777777777777-|

e|---------------------------------------------------------------------------|
B|---------------------------------------------------------------------------|
G|---------------------------------------------------------------------------|
D|55555555555555-3~----------------------------------------------------------|
A|55555555555555-3~----------------------------------------------------------|
D|55555555555555-3~----------------------------------------------------------|

Verse 1 (optional: play intro riff over end palm mutes)

e|-------------------------------------|--------------------------------------|
B|-------------------------------------|--------------------------------------|
G|-------------------------------------|--------------------------------------|
D|-------------------------------------|--------------------------------------|
A|-33333333-77777777-55555555-44444444-|-33333333-77777777-55555555-44444444--|
D|-------------------------------------|--------------------------------------|
   ******** ******** ******** ********   ******** ******** ******** ********

e|--------------------|-------------------------------------|-------------------|
B|--------------------|-------------------------------------|-------------------|
G|--5----5------------|-------------------------------------|-------------------|
D|-5-5--5-5---5----5--|-------------------------------------|-------------------|
A|3----3-----5-5--5-5-|-33333333-77777777-55555555-44444444-|-33333333-77777777-|
D|----------5----5----|-------------------------------------|-------------------|
                        ******** ******** ******** ********   ******** ********  
e|-------------------|
B|-------------------|
G|-------------------|
D|-------------------|
A|-55555555-44444444-|
D|-------------------|
   ******** ********

e|------------------------------------|---------------------|
B|------------------------------------|---------------------|
G|------------------------------------|---5----5------------|
D|------------------------------------|--5-5--5-5---5----5--|
A|33333333-77777777-55555555-44444444-|-3----3-----5-5--5-5-|
D|------------------------------------|-----------5----5----|
  ******** ******** ******** ********

e|--15--15--------------------------------------15-|----------------------------|
B|16--16--16-15-16-15-16-15--15--16-----------18---|----------------------------|
G|-------------------------17--17--17-16-17-16-----|--5----5--------------------|
D|-------------------------------------------------|-5-5--5-5---5----5----------|
A|-------------------------------------------------|3----3-----5-5--5-5---------|
D|-------------------------------------------------|----------5----5------------|

Interlude 1

e|-----------------------------------|-----------------------------------|
B|-----------------------------------|-----------------------------------|
G|-5555555555555555------------------|-----------------------------------|
D|-5555555555555555-7777777777777777-|-5555555555555555-3333333333333333-|
A|-3333333333333333-7777777777777777-|-5555555555555555-3333333333333333-|
D|------------------7777777777777777-|-5555555555555555-3333333333333333-|

e|-----------------------------------|-----------------------------------|
B|-----------------------------------|-----------------------------------|
G|-5555555555555555------------------|-----------------------------------|
D|-5555555555555555-7777777777777777-|-5555555555555555-3333333333333333-|
A|-3333333333333333-7777777777777777-|-5555555555555555-3333333333333333-|
D|------------------7777777777777777-|-5555555555555555-3333333333333333-|

Verse 2

e|--15--15--------------------------------------15-|---------------------------------|
B|16--16--16-15-16-15-16-15--15--16-----------18---|---------------------------------|
G|-------------------------17--17--17-16-17-16-----|-555-555-999-999-777-777-666-666-|
D|-------------------------------------------------|-xxx-xxx-xxx-xxx-xxx-xxx-xxx-xxx-|
A|-------------------------------------------------|-333-333-777-777-555-555-444-444-|
D|-------------------------------------------------|---------------------------------|
                                                     ### ### ### ### ### ### ### ###

e|--------------------------------|---------------------|---------------------------------|
B|--------------------------------|---------------------|---------------------------------|
G|555-555-999-999-777-777-999-999-|---5----5------------|-555-555-999-999-777-777-666-666-|
D|xxx-xxx-xxx-xxx-xxx-xxx-xxx-xxx-|--5-5--5-5---5----5--|-xxx-xxx-xxx-xxx-xxx-xxx-xxx-xxx-|
A|333-333-777-777-555-555-777-777-|-3----3-----5-5--5-5-|-333-333-777-777-555-555-444-444-|
D|--------------------------------|-----------5----5----|---------------------------------|
  ### ### ### ### ### ### ### ###                         ### ### ### ### ### ### ### ###

e|--------------------|-------------------------------------------------------|
B|--------------------|-------------------------------------------------------|
G|--5----5------------|-xx5-xx5-xx9-xx9-xx7-xx7-xx6-xx6-----------------------|
D|-5-5--5-5---5----5--|-xxx-xxx-xxx-xxx-xxx-xxx-xxx-xxx-----------------------|
A|3----3-----5-5--5-5-|-xx3-xx3-xx7-xx7-xx5-xx5-xx4-xx4-----------------------|
D|----------5----5----|-------------------------------------------------------|
                        ### ### ### ### ### ### ### ###

Interlude 2

e|---------------------------------|------------------------------------------|
B|---------------------------------|------------------------------------------|
G|5555555555555555-----------------|------------------------------------------|
D|5555555555555555-777777777777777-|-5555555555555555-3333333333333333--------|
A|3333333333333333-777777777777777-|-5555555555555555-3333333333333333--------|
D|-----------------777777777777777-|-5555555555555555-3333333333333333--------|

e|---------------------------------|------------------|
B|---------------------------------|------------------|
G|5555555555555555-----------------|------------------|
D|5555555555555555-777777777777777-|-5555555555555555-|
A|3333333333333333-777777777777777-|-5555555555555555-|
D|-----------------777777777777777-|-5555555555555555-|

Bridge

e|-8-------8-------10-------10-------|-8-------8-------10~-|
B|--6-89-6--6-89-6---6-89-6---6-89-6-|--6-89-6--6-89-6-----|
G|-----------------------------------|---------------------|
D|--(play this phrase 8 times)-------|---------------------|
A|-----------------------------------|---------------------|
D|-----------------------------------|---------------------|

Outro (play this until song ends)

e|13-12-13-12-10-12-|-(play harmony over previous)-|
B|------------------|------------------------------|
G|------------------|-14--14-12--12----------------|
D|------------------|---14-----14------------------|
A|------------------|------------------------------|
D|------------------|------------------------------|

Intro
Verse 1
Interlude 1
Verse 2
Interlude 2
Bridge
Outro

Legend:
x Dead Note
~ Let Ring
* Palm Mute
# Staccato

Well, that's it...please comment/rate! (if rating is 4 stars or less, please leave reason why in comments 
section); thanks, God bless you!

Romans 10:13



Добавлено: 10.06.2014
Другие материалы по этой песне:
  • Аккорды и текст

Страница создана 10.06.2014
http://primanota.ru/five-iron-frenzy/blizzards-and-bygones-chords.htm
Привет, Гость.
Предлагаем пройти революционный курс по гитаре.
Подарок от PrimaNota.Ru, забирай!