PrimaNota.ru - самый крупный в мире бесплатный архив песенных текстов, аккордов, табулатур и нот


Five Iron Frenzy - A Flowery Song - аккорды и текст, таба, бас-таба, видео

Регистрация Запомнить меня
Войти через:  Facebook Google Twitter Vk Yandex Mail.ru

Five Iron Frenzy - A Flowery Song - аккорды и текст, таба, бас-таба, видео

Печатать
Просмотров: 198
A Flowery Song
Five Iron Frenzy
(bass)

Intro/Verses
[E-----------7--5-------7-----
A-7----7-6--6--4-4-6----6----
D--6-6------------------4----
G----------------------------]

Chorus/transition from Intro to 1st verse
[E-0-0-0--------2-2-----4-2---
A--------4-4-4-----0-0-------
D----------------------------
G----------------------------]

Transistion from verses to chorus
[E-5-5-5-6-7-7------9--9-7----
A----------------9-7--7------
D----------------------------
G----------------------------]

The bridge where there are little chirping birdies
[E----------------5-----7------
A-7------4-------7--7--9--9---
D--9--9---6--6----7-----9-----
G----9------6-----------------]

and ends with [A-5-7]
Добавлено: 09.08.2013
Другие материалы по этой песне:
  • Аккорды и текст

Страница создана 28.04.2012
http://primanota.ru/five-iron-frenzy/a-flowery-song-chords.htm
Привет, Гость.
Предлагаем пройти революционный курс по гитаре.
Подарок от PrimaNota.Ru, забирай!