PrimaNota.ru - самый крупный в мире бесплатный архив песенных текстов, аккордов, табулатур и нот


Five Horse Johnson - Sweetwater Gasoline - таба, видео

Регистрация Запомнить меня
Войти через:  Facebook Google Twitter Vk Yandex Mail.ru

Five Horse Johnson - Sweetwater Gasoline - таба, видео

Печатать
Просмотров: 174
#############################################################################
### PLEASE NOTE THIS SONG IS CALLED "Sweetwater" NOT "Sweetwater Gasoline"###
### The tab requests song title was named incorrectly, I cannot change it ###
### It is the correct song off "The Last Men on Earth" Album ###
### Can this please be corrected, thank you. ###
#############################################################################

Tabbed by sixwheeledbeast
Five Horse Johnson - Sweetwater
Tuning: Standard E (EADBGE)

KEY
PM..  - palm mute
x     - muted string
[5]   - pinch harm
{7}   - natural harm
(0)   - ghost note
///.. - tremolo picking

PM any questions/corrections thanks, rate please. 


#Intro (0:00) 
 -{Guitar 1}
e|-----------------------------|
B|-----------------------------|
G|-------------------------7-5~|
D|x-x-x-x-x-x-7~x-x-x-x--5-----|
A|x-x-x-x-x-x---x-x-x-x--------|
E|-----------------------------|
--{Guitar 2}
e|-----------------------------|
B|-------------------------7-5~|:
G|----5--7--5-------5xh5-5-7-5~|
D|-7--5--7--5-7~-7--5xh5-5-----|
A|-7-------------7-------------|:
E|-----------------------------|x2

#Verse Riff Variation (0:10) 
 -{Guitar 1}
e|-----------------------------|
B|-----------------------------|:
G|---------------------5h7p5---|
D|x-x-x-x-x-x-7~x-x-x-x-----7~-|
A|x-x-x-x-x-x-x-x-x-x-x--------|:
E|-----------------------------|x2
--{Guitar 2}
e|-----------------------------|
B|-----------------------------|:
G|---5-------------5-----------|
D|-7-5--5-5-5/7--7-5--5-5-5/7--|
A|-7-3--5-5-5/7--7-3--5-5-5/7--|:
E|-5----3-3-3/5--5----3-3-3/5--|x4

#Verse Riff (0:19) 
 -{Guitar 1}
e|-----------------------------|
B|-----------------------------|
G|-----------------------------|
D|x-x-x-x-x-x-x-x-x-x-x-x-x-7~-|
A|x-x-x-x-x-x-x-x-x-x-x-x-x----|
E|-----------------------------|
 |
e|-----------------------------|
B|-----------------------------|:
G|---------------------5h7p5---|
D|x-x-x-x-x-x-x-x-x-x-x-----7~-|
A|x-x-x-x-x-x-x-x-x-x-x--------|:
E|-----------------------------|x2
--{Guitar 2}
e|-----------------------------|
B|-----------------------------|:
G|---5-------------5-----------|
D|-7-5--5-5-5/7--7-5--5-5-5/7--|
A|-7-3--5-5-5/7--7-3--5-5-5/7--|:
E|-5----3-3-3/5--5----3-3-3/5--|x4

#Verse Riff Variation (0:38)

#Verse Riff (0:48)

#Bridge "The Fuel" (1:08)
e|----------------------------------|
B|----------------------------------|:
G|-------5-5------------7-5---7-5---|
D|-7-5-7-----7~-7-5h7-7-----7-----7-|
A|----------------------------------|:
E|----------------------------------|x2

#Chorus (1:17)
 -{Guitar 1}
e|---------------|
B|---------------|:
G|-------------5~|
D|---------5h7---|
A|---------------|:
E|---------------|x4
--{Guitar 2}
e|---------------|
B|---------------|:
G|---------------|
D|-5-5-5/7-------|
A|-5-5-5/7-------|:
E|-3-3-3/5-------|x4

e|-----------|  |--------|
B|-----------|::|-----2--|
G|-7-5-------|  |-7-5-2--|
D|-7-5-7-5-7-|  |-7-5-2--|
A|-5-3-7-5-7-|::|-5-3-0--|
E|-----5-3-5-|x3|--------|
                (On Last only)

#Verse Riff (1:38)

#Bridge "The Fuel" (1:58)

#Chorus (2:07)

#Solo (2:28)
A Minor Blues Scale
Still working on this. 
e|---------------------------------|
B|---------------------------------|:
G|---------------------------------|
D|-7--7--5--5-5/7---7--7--5--5-5/7-|
A|-7--7--5--5-5/7---7--7--5--5-5/7-|:
E|-5--5--3--3-3/5---5--5--3--3-3/5-|x6

#Chorus (2:57) 

#Ending (3:06)
e|-----------|  |--------|
B|-----------|::|-----2--|
G|-7-5-------|  |-7-5-2--|
D|-7-5-7-5-7-|  |-7-5-2--|
A|-5-3-7-5-7-|::|-5-3-0--|
E|-----5-3-5-|x3|--------|
                (On Last only)
Добавлено: 18.06.2012
Другие материалы по этой песне:
  • Аккорды и текст

Страница создана 18.06.2012
http://primanota.ru/five-horse-johnson/sweetwater-gasoline-chords.htm
Привет, Гость.
Предлагаем пройти революционный курс по гитаре.
Подарок от PrimaNota.Ru, забирай!