PrimaNota.ru - самый крупный в мире бесплатный архив песенных текстов, аккордов, табулатур и нот


Five Horse Johnson - Cherry Red - таба, видео

Регистрация Запомнить меня
Войти через:  Facebook Google Twitter Vk Yandex Mail.ru

Five Horse Johnson - Cherry Red - таба, видео

Печатать
Просмотров: 228
Tabbed by sixwheeledbeast
Five Horse Johnson - Cherry Red
Tuning: Standard E

Got fed up trying to find a tab for this.
So here's my attempt sounds good to me.

PM any questions/corrections thanks, rate please.


#Intro/Chorus Riff
e|-----------------------------------------------------|
B|-------------7h10p7-----------------------7~-----7~--|:
G|-------------------9----------------------7~-----7~--|
D|-99-9-9-999----------9--99-9-9-9-999-7h9p7--7h9p7----|
A|-99-9-9-999-------------99-9-9-9-999-----------------|:
E|-77-7-7-777-------------77-7-7-7-777-----------------|x4

#Verse Riff
e|-----------------------|
B|-----------------------|:
G|-------------------7---|
D|-99-9-9-999--------7-7-|
A|-99-9-9-999--7h9p7---7-|:
E|-77-7-7-777------------|x12

#Intro/Chorus Riff
e|-----------------------------------------------------|
B|-------------7h10p7-----------------------7~-----7~--|:
G|-------------------9----------------------7~-----7~--|
D|-99-9-9-999----------9--99-9-9-9-999-7h9p7--7h9p7----|
A|-99-9-9-999-------------99-9-9-9-999-----------------|:
E|-77-7-7-777-------------77-7-7-7-777-----------------|x2

#Verse Riff
e|-----------------------|
B|-----------------------|:
G|-------------------7---|
D|-99-9-9-999--------7-7-|
A|-99-9-9-999--7h9p7---7-|:
E|-77-7-7-777------------|x12

#Break Down Riff
e|-----------------------------------|  |-----------------|
B|-------------------------7~------7~|::|------7~-------7~|
G|---------------------7h9p7~--7h9p7~|  |--7h9p7~---7h9p7~|
D|-5-5-5555-7-7-7777--97h9p7~-97h9p7~|  |-97h9p7~--97h9p7~|
A|-5-5-5555-7-7-7777--9-------9------|::|-9--------9------|
E|-3-3-3333-5-5-5555-----------------|x2|-----------------|

#Solo - B Minor Pentatonic (2.10)
Still working on this. Will keep updated.
It doesn't seem to leave the first two minor pentatonic box shapes.

#Intro/Chorus Riff
e|-----------------------------------------------------|
B|-------------7h10p7-----------------------7~-----7~--|:
G|-------------------9----------------------7~-----7~--|
D|-99-9-9-999----------9--99-9-9-9-999-7h9p7--7h9p7----|
A|-99-9-9-999-------------99-9-9-9-999-----------------|:
E|-77-7-7-777-------------77-7-7-7-777-----------------|x2

#Verse Riff
e|-----------------------|
B|-----------------------|:
G|-------------------7---|
D|-99-9-9-999--------7-7-|
A|-99-9-9-999--7h9p7---7-|:
E|-77-7-7-777------------|x8

#Break Down Riff
e|-----------------------------------|  |-----------------|
B|-------------------------7~------7~|::|------7~-------7~|
G|---------------------7h9p7~--7h9p7~|  |--7h9p7~---7h9p7~|
D|-5-5-5555-7-7-7777--97h9p7~-97h9p7~|  |-97h9p7~--97h9p7~|
A|-5-5-5555-7-7-7777--9-------9------|::|-9--------9------|
E|-3-3-3333-5-5-5555-----------------|x2|-----------------|

#Intro/Chorus Riff                                     end on
e|-----------------------------------------------------|  |--|
B|-------------7h10p7-----------------------7~-----7~--|::|--|
G|-------------------9----------------------7~-----7~--|  |--|
D|-99-9-9-999----------9--99-9-9-9-999-7h9p7--7h9p7----|  |9\|
A|-99-9-9-999-------------99-9-9-9-999-----------------|::|9\|
E|-77-7-7-777-------------77-7-7-7-777-----------------|x2|--|

/
Добавлено: 31.07.2012
Другие материалы по этой песне:
  • Аккорды и текст

Страница создана 31.07.2012
http://primanota.ru/five-horse-johnson/cherry-red-chords.htm
Привет, Гость.
Предлагаем пройти революционный курс по гитаре.
Подарок от PrimaNota.Ru, забирай!