PrimaNota.ru - самый крупный в мире бесплатный архив песенных текстов, аккордов, табулатур и нот


Five Finger Death Punch - The Way Of The Fist - текст песни, таба, видео

Регистрация Запомнить меня
Войти через:  Facebook Google Twitter Vk Yandex Mail.ru

Five Finger Death Punch - The Way Of The Fist - текст песни, таба, видео

Печатать
Просмотров: 168
Авторы музыки: Ivan Moody, Zoltan Bathory
Авторы текста: Ivan Moody, Zoltan Bathory
Lead Guitar



      S S T T S S S T T S S S T T S T T S T T S  
B ||--------------------------------------------|
F#||--------------------------------------------|
D ||--------------------------------------------|
A ||--------------------------------------------|
E ||--------------------------------3-2-0-------|
B ||--0-0-3-2-0-0-0-3-2-0-0-0-3-2-0-------3-2-0-|


  S S T T S S S T T S S S T T S T T S T T S  
--------------------------------------------|
--------------------------------------------|
--------------------------------------------|
--------------------------------------------|
--------------------------------3-2-0-------|
--0-0-3-2-0-0-0-3-2-0-0-0-3-2-0-------3-2-0-|


  S S T T S S S T T S S S T T S T T S T T S  
--------------------------------------------|
--------------------------------------------|
--------------------------------------------|
--------------------------------------------|
--------------------------------3-2-0-------|
--0-0-3-2-0-0-0-3-2-0-0-0-3-2-0-------3-2-0-|


  S S T T S S S T T S S S T T S T T S T T S  
--------------------------------------------|
--------------------------------------------|
--------------------------------------------|
--------------------------------------------|
--------------------------------3-2-0-------|
--0-0-3-2-0-0-0-3-2-0-0-0-3-2-0-------3-2-0-|


  S T T S S S S T S  S S S T T S S S T T S  
-------------------------------------------|
-------------------------------------------|
-------------------------------------------|
------------3-3---3--4---------------------|
------------3-3---3--4-----3-2-0-----------|
--0-0-0-0-0-1-1-0-1s-2-0-0-------0-0-3-2-0-|


  S T T S S S S T S  S S S T T S S S T T S  
-------------------------------------------|
-------------------------------------------|
-------------------------------------------|
------------3-3---3--4---------------------|
------------3-3---3--4-----3-2-0-----------|
--0-0-0-0-0-1-1-0-1s-2-0-0-------0-0-3-2-0-|


  S T T S S S S T S  S S S T T S S S T T S  
-------------------------------------------|
-------------------------------------------|
-------------------------------------------|
------------3-3---3--4---------------------|
------------3-3---3--4-----3-2-0-----------|
--0-0-0-0-0-1-1-0-1s-2-0-0-------0-0-3-2-0-|


  S T T S S S S T S  S S S T T S S S T T S  
-------------------------------------------|
-------------------------------------------|
-------------------------------------------|
------------3-3---3--4---------------------|
------------3-3---3--4-----3-2-0-----------|
--0-0-0-0-0-1-1-0-1s-2-0-0-------0-0-3-2-0-|


   T   T   S  T   T   T  T  T   T   S  T   T  T   S  S  S  S  S  S  S  S  S  
--12h-13p-12----------------------------------------------------------------|
-------------15p-13p-12----12h-13p-12---------------------------------------|
------------------------14------------14p-13--------------------------------|
---------------------------------------------15p-14-------------------------|
----------------------------------------------------15-14-12----11-12-12-11-|
-------------------------------------------------------------14-------------|


   S  S  S  S S  S S S S S S S  S  S  S  S  
-------------------------------------------|
-------------------------------------------|
-------------------------------------------|
-------------------------------------------|
-------------------------------------12-11-|
--13-12-10-12-8-10-7-8-5-7-4-5-13-12-------|


   S  S  S  S  S  S  S  S  S  S   S  S  S  S  S  S  
---------------------------------------------------|
--------------------------12-----------------------|
--14-13----------------------14p-13----------13-14-|
--------15-14-----------------------15-14-15-------|
--------------11-12-14-15--------------------------|
---------------------------------------------------|


   S  S  S  S  S  S  S  S  S  S  S  S  S  S  S  S  
--------12-13-13-13-13-13-------------------------|
--12-13-------------------12-13-12----------------|
-----------------------------------13-14-13-------|
--------------------------------------------14-15-|
--------------------------------------------------|
--------------------------------------------------|


  S S T T S S S T T S S S T T S T T S T T S  
--------------------------------------------|
--------------------------------------------|
--------------------------------------------|
--------------------------------------------|
--------------------------------3-2-0-------|
--0-0-3-2-0-0-0-3-2-0-0-0-3-2-0-------3-2-0-|


  S S T T S S S T T S S S T T S T T S T T S  
--------------------------------------------|
--------------------------------------------|
--------------------------------------------|
--------------------------------------------|
--------------------------------3-2-0-------|
--0-0-3-2-0-0-0-3-2-0-0-0-3-2-0-------3-2-0-|


  S S T T S S S T T S S S T T S T T S T T S  
--------------------------------------------|
--------------------------------------------|
--------------------------------------------|
--------------------------------------------|
--------------------------------3-2-0-------|
--0-0-3-2-0-0-0-3-2-0-0-0-3-2-0-------3-2-0-|


  S S T T S S S T T S S S T T S T T S T T S  
--------------------------------------------|
--------------------------------------------|
--------------------------------------------|
--------------------------------------------|
--------------------------------3-2-0-------|
--0-0-3-2-0-0-0-3-2-0-0-0-3-2-0-------3-2-0-|


  S T T S S S S T S  S S S T T S S S T T S  
-------------------------------------------|
-------------------------------------------|
-------------------------------------------|
------------3-3---3--4---------------------|
------------3-3---3--4-----3-2-0-----------|
--0-0-0-0-0-1-1-0-1s-2-0-0-------0-0-3-2-0-|


  S T T S S S S T S  S S S T T S S S T T S  
-------------------------------------------|
-------------------------------------------|
-------------------------------------------|
------------3-3---3--4---------------------|
------------3-3---3--4-----3-2-0-----------|
--0-0-0-0-0-1-1-0-1s-2-0-0-------0-0-3-2-0-|


  S T T S S S S T S  S S S T T S S S T T S  
-------------------------------------------|
-------------------------------------------|
-------------------------------------------|
------------3-3---3--4---------------------|
------------3-3---3--4-----3-2-0-----------|
--0-0-0-0-0-1-1-0-1s-2-0-0-------0-0-3-2-0-|


  S T T S S S S T S  S S S T T S S S T T S  
-------------------------------------------|
-------------------------------------------|
-------------------------------------------|
------------3-3---3--4---------------------|
------------3-3---3--4-----3-2-0-----------|
--0-0-0-0-0-1-1-0-1s-2-0-0-------0-0-3-2-0-|


  S T T S S T T S S T T S S T T S S S S S  
------------------------------------------|
------------------------------------------|
------------------------------------------|
--4-------4-------4-------4---------------|
--4-------4-------4-------4-----4-5-4-2-0-|
--2-2-2-2-2-2-2-2-2-2-2-2-2-2-2-----------|


  S T T S S T T S S S S T T S S T T S S S  
------------------------------------------|
------------------------------------------|
------------------------------------------|
--2-2-2-2-2-2-2-2-2-2---------------------|
----------------------2-2-2-2-2-2-2-2-2-2-|
------------------------------------------|


  S T T S S T T S S T T S S T T S S S S S  
------------------------------------------|
------------------------------------------|
------------------------------------------|
--4-------4-------4-------4---------------|
--4-------4-------4-------4-----4-5-4-2-0-|
--2-2-2-2-2-2-2-2-2-2-2-2-2-2-2-----------|


  S T T S S T T S S S S T T S S T T S S S  
------------------------------------------|
------------------------------------------|
------------------------------------------|
--2-2-2-2-2-2-2-2-2-2---------------------|
----------------------2-2-2-2-2-2-2-2-2-2-|
------------------------------------------|


  S T T S S T T S S T T S S T T S S S S S  
------------------------------------------|
------------------------------------------|
------------------------------------------|
--4-------4-------4-------4---------------|
--4-------4-------4-------4-----4-5-4-2-0-|
--2-2-2-2-2-2-2-2-2-2-2-2-2-2-2-----------|


  S T T S S T T S S S S T T S S T T S S S  
------------------------------------------|
------------------------------------------|
------------------------------------------|
--2-2-2-2-2-2-2-2-2-2---------------------|
----------------------2-2-2-2-2-2-2-2-2-2-|
------------------------------------------|


  S T T S S T T S S T T S S T T S S S S S  
------------------------------------------|
------------------------------------------|
------------------------------------------|
--4-------4-------4-------4---------------|
--4-------4-------4-------4-----4-5-4-2-0-|
--2-2-2-2-2-2-2-2-2-2-2-2-2-2-2-----------|


  S T T S S T T S S S S T T S S T T S S S  
------------------------------------------|
------------------------------------------|
------------------------------------------|
--2-2-2-2-2-2-2-2-2-2---------------------|
----------------------2-2-2-2-2-2-2-2-2-2-|
------------------------------------------|


  PM PM PM PM PM PM PM PM PM PM PM PM    PM PM PM PM PM PM PM PM  
  S  E  S  E  S  E  S  E  S  S  S  S     S  E  S  E  S  E  S  E   
--------------------------------------|--------------------------|
--------------------------------------|--------------------------|
--------------------------1--2--1-----|--------------------------|
--2--2--3--3--2--2--3--3-----------3--|--2--2--3--3--2--2--3--3--|
--2--2--3--3--2--2--3--3--------------|--2--2--3--3--2--2--3--3--|
--0--0--1--1--0--0--1--1--------------|--0--0--1--1--0--0--1--1--|


  PM PM PM PM PM PM PM PM PM PM PM PM    PM PM PM PM PM PM PM PM  
  S  E  S  E  S  E  S  E  S  S  S  S     S  E  S  E  S  E  S  E   
--------------------------------------|--------------------------|
--------------------------------------|--------------------------|
--------------------------1--2--1-----|--------------------------|
--2--2--3--3--2--2--3--3-----------3--|--2--2--3--3--2--2--3--3--|
--2--2--3--3--2--2--3--3--------------|--2--2--3--3--2--2--3--3--|
--0--0--1--1--0--0--1--1--------------|--0--0--1--1--0--0--1--1--|


  S  E  S   E  S  E  S   E  S S S S  
------------------------------------|
------------------------------------|
--7s-9--9s-10--7s-9--9s-10----------|
--7s-9--9s-10--7s-9--9s-10--6-7-6---|
--5s-7--7s--8--5s-7--7s--8--------8-|
------------------------------------|


  S  E  S   E  S  E  S   E  T  T  T  T  T  T  T  T   
----------------------------------------------------|
----------------------------------------------------|
--7s-9--9s-10--7s-9--9s-10--6h-7p-6h-7p-6h-7p-6h-7h-|
--7s-9--9s-10--7s-9--9s-10--------------------------|
--5s-7--7s--8--5s-7--7s--8--------------------------|
----------------------------------------------------|


  S  E  S   E  S  E  S   E  S S S S  
------------------------------------|
------------------------------------|
--7s-9--9s-10--7s-9--9s-10----------|
--7s-9--9s-10--7s-9--9s-10--6-7-6---|
--5s-7--7s--8--5s-7--7s--8--------8-|
------------------------------------|


  S  E  S   E  S  E  S   E  T  T  T  T  T  T  T  T   
----------------------------------------------------|
----------------------------------------------------|
--7s-9--9s-10--7s-9--9s-10--6h-7p-6h-7p-6h-7p-6h-7h-|
--7s-9--9s-10--7s-9--9s-10--------------------------|
--5s-7--7s--8--5s-7--7s--8--------------------------|
----------------------------------------------------|


  S S T T S S S T T S S S T T S T T S T T S  
--------------------------------------------|
--------------------------------------------|
--------------------------------------------|
--------------------------------------------|
--------------------------------3-2-0-------|
--0-0-3-2-0-0-0-3-2-0-0-0-3-2-0-------3-2-0-|


  S S T T S S S T T S S S T T S T T S T T S  
--------------------------------------------|
--------------------------------------------|
--------------------------------------------|
--------------------------------------------|
--------------------------------3-2-0-------|
--0-0-3-2-0-0-0-3-2-0-0-0-3-2-0-------3-2-0-|


  S S T T S S S T T S S S T T S T T S T T S  
--------------------------------------------|
--------------------------------------------|
--------------------------------------------|
--------------------------------------------|
--------------------------------3-2-0-------|
--0-0-3-2-0-0-0-3-2-0-0-0-3-2-0-------3-2-0-|


  S S T T S S S T T S S S T T S T T S T T S  
--------------------------------------------|
--------------------------------------------|
--------------------------------------------|
--------------------------------------------|
--------------------------------3-2-0-------|
--0-0-3-2-0-0-0-3-2-0-0-0-3-2-0-------3-2-0-|


  S T T S S S S T S  S S S T T S S S T T S  
-------------------------------------------|
-------------------------------------------|
-------------------------------------------|
------------3-3---3--4---------------------|
------------3-3---3--4-----3-2-0-----------|
--0-0-0-0-0-1-1-0-1s-2-0-0-------0-0-3-2-0-|


  S T T S S S S T S  S S S T T S S S T T S  
-------------------------------------------|
-------------------------------------------|
-------------------------------------------|
------------3-3---3--4---------------------|
------------3-3---3--4-----3-2-0-----------|
--0-0-0-0-0-1-1-0-1s-2-0-0-------0-0-3-2-0-|


  S T T S S S S T S  S S S T T S S S T T S  
-------------------------------------------|
-------------------------------------------|
-------------------------------------------|
------------3-3---3--4---------------------|
------------3-3---3--4-----3-2-0-----------|
--0-0-0-0-0-1-1-0-1s-2-0-0-------0-0-3-2-0-|


  S T T S S S S T S  S S S T T S S S T T S  
-------------------------------------------|
-------------------------------------------|
-------------------------------------------|
------------3-3---3--4---------------------|
------------3-3---3--4-----3-2-0-----------|
--0-0-0-0-0-1-1-0-1s-2-0-0-------0-0-3-2-0-|


  S T T S S T T S S T T S S T T S S S S S  
------------------------------------------|
------------------------------------------|
------------------------------------------|
--4-------4-------4-------4---------------|
--4-------4-------4-------4-----4-5-4-2-0-|
--2-2-2-2-2-2-2-2-2-2-2-2-2-2-2-----------|


  S T T S S T T S S S S T T S S T T S S S  
------------------------------------------|
------------------------------------------|
------------------------------------------|
--2-2-2-2-2-2-2-2-2-2---------------------|
----------------------2-2-2-2-2-2-2-2-2-2-|
------------------------------------------|


  S T T S S T T S S T T S S T T S S S S S  
------------------------------------------|
------------------------------------------|
------------------------------------------|
--4-------4-------4-------4---------------|
--4-------4-------4-------4-----4-5-4-2-0-|
--2-2-2-2-2-2-2-2-2-2-2-2-2-2-2-----------|


  S T T S S T T S S S S T T S S T T S S S  
------------------------------------------|
------------------------------------------|
------------------------------------------|
--2-2-2-2-2-2-2-2-2-2---------------------|
----------------------2-2-2-2-2-2-2-2-2-2-|
------------------------------------------|


  S T T S S T T S S T T S S T T S S S S S  
------------------------------------------|
------------------------------------------|
------------------------------------------|
--4-------4-------4-------4---------------|
--4-------4-------4-------4-----4-5-4-2-0-|
--2-2-2-2-2-2-2-2-2-2-2-2-2-2-2-----------|


  S T T S S T T S S S S T T S S T T S S S  
------------------------------------------|
------------------------------------------|
------------------------------------------|
--2-2-2-2-2-2-2-2-2-2---------------------|
----------------------2-2-2-2-2-2-2-2-2-2-|
------------------------------------------|


  S T T S S T T S S T T S S T T S S S S S  
------------------------------------------|
------------------------------------------|
------------------------------------------|
--4-------4-------4-------4---------------|
--4-------4-------4-------4-----4-5-4-2-0-|
--2-2-2-2-2-2-2-2-2-2-2-2-2-2-2-----------|


  S T T S S T T S S S S T T S S T T S S S     H          H         
------------------------------------------|-----------------------|
------------------------------------------|-----------------------|
------------------------------------------|--11s--------14--------|
--2-2-2-2-2-2-2-2-2-2---------------------|-----------------------|
----------------------2-2-2-2-2-2-2-2-2-2-|-----------------------|
------------------------------------------|-----------------------|


   E   E   E   E   E   E   E  E   
---------------------------------|
---------------------------------|
--14--14--13--13--11s--9--11--9--|
---------------------------------|
---------------------------------|
---------------------------------|


   E   S  Q    E    Q     E    Q     E    Q     E    Q     E    Q     E   E   E 
---------------9s--14----14s--21----21s--17----17s--16----16s--14---------------
---------10----------------------------------------------------------14--14--13-
--11--11------------------------------------------------------------------------
--------------------------------------------------------------------------------
--------------------------------------------------------------------------------
--------------------------------------------------------------------------------


   H          H            E   E   E   E   E   E   E  E   
-----------------------|---------------------------------|
-----------------------|---------------------------------|
--11s--------14--------|--14--14--13--13--11s--9--11--9--|
-----------------------|---------------------------------|
-----------------------|---------------------------------|
-----------------------|---------------------------------|


   E   S  Q    E    Q     E    Q     E    Q     E    Q     E    Q     E   E   E 
---------------9s--14----14s--21----21s--17----17s--16----16s--14---------------
---------10----------------------------------------------------------14--14--13-
--11--11------------------------------------------------------------------------
--------------------------------------------------------------------------------
--------------------------------------------------------------------------------
--------------------------------------------------------------------------------


  PM PM PM PM PM PM PM PM PM PM PM PM    PM PM PM PM PM PM PM PM  
  S  E  S  E  S  E  S  E  S  S  S  S     S  E  S  E  S  E  S  E   
--------------------------------------|--------------------------|
--------------------------------------|--------------------------|
--------------------------1--2--1-----|--------------------------|
--2--2--3--3--2--2--3--3-----------3--|--2--2--3--3--2--2--3--3--|
--2--2--3--3--2--2--3--3--------------|--2--2--3--3--2--2--3--3--|
--0--0--1--1--0--0--1--1--------------|--0--0--1--1--0--0--1--1--|


  PM PM PM PM PM PM PM PM PM PM PM PM    PM PM PM PM PM PM PM PM  
  S  E  S  E  S  E  S  E  S  S  S  S     S  E  S  E  S  E  S  E   
--------------------------------------|--------------------------|
--------------------------------------|--------------------------|
--------------------------1--2--1-----|--------------------------|
--2--2--3--3--2--2--3--3-----------3--|--2--2--3--3--2--2--3--3--|
--2--2--3--3--2--2--3--3--------------|--2--2--3--3--2--2--3--3--|
--0--0--1--1--0--0--1--1--------------|--0--0--1--1--0--0--1--1--|


  S  E  S   E  S  E  S   E  S S S S  
------------------------------------|
------------------------------------|
--7s-9--9s-10--7s-9--9s-10----------|
--7s-9--9s-10--7s-9--9s-10--6-7-6---|
--5s-7--7s--8--5s-7--7s--8--------8-|
------------------------------------|


  S  E  S   E  S  E  S   E  T  T  T  T  T  T  T  T   
----------------------------------------------------|
----------------------------------------------------|
--7s-9--9s-10--7s-9--9s-10--6h-7p-6h-7p-6h-7p-6h-7h-|
--7s-9--9s-10--7s-9--9s-10--------------------------|
--5s-7--7s--8--5s-7--7s--8--------------------------|
----------------------------------------------------|


  S  E  S   E  S  E  S   E  S S S S  
------------------------------------|
------------------------------------|
--7s-9--9s-10--7s-9--9s-10----------|
--7s-9--9s-10--7s-9--9s-10--6-7-6---|
--5s-7--7s--8--5s-7--7s--8--------8-|
------------------------------------|


  S  E  S   E  S  E  S   E  T  T  T  T  T  T  T  T   
----------------------------------------------------|
----------------------------------------------------|
--7s-9--9s-10--7s-9--9s-10--6h-7p-6h-7p-6h-7p-6h-7h-|
--7s-9--9s-10--7s-9--9s-10--------------------------|
--5s-7--7s--8--5s-7--7s--8--------------------------|
----------------------------------------------------|


  S  E  S   E  S  E  S   E  S S S S  
------------------------------------|
------------------------------------|
--7s-9--9s-10--7s-9--9s-10----------|
--7s-9--9s-10--7s-9--9s-10--6-7-6---|
--5s-7--7s--8--5s-7--7s--8--------8-|
------------------------------------|


  S  E  S   E  S  E  S   E  T  T  T  T  T  T  T  T   
----------------------------------------------------|
----------------------------------------------------|
--7s-9--9s-10--7s-9--9s-10--6h-7p-6h-7p-6h-7p-6h-7h-|
--7s-9--9s-10--7s-9--9s-10--------------------------|
--5s-7--7s--8--5s-7--7s--8--------------------------|
----------------------------------------------------|


  S  E  S   E  S  E  S   E  S S S S  
------------------------------------|
------------------------------------|
--7s-9--9s-10--7s-9--9s-10----------|
--7s-9--9s-10--7s-9--9s-10--6-7-6---|
--5s-7--7s--8--5s-7--7s--8--------8-|
------------------------------------|


  S  E  S   E  S  E  S   E  T  T  T  T  T  T  T  T   
----------------------------------------------------|
----------------------------------------------------|
--7s-9--9s-10--7s-9--9s-10--6h-7p-6h-7p-6h-7p-6h-7h-|
--7s-9--9s-10--7s-9--9s-10--------------------------|
--5s-7--7s--8--5s-7--7s--8--------------------------|
----------------------------------------------------|


  S T T S S T T S S T T S S T T S S S S S  
------------------------------------------|
------------------------------------------|
------------------------------------------|
--4-------4-------4-------4---------------|
--4-------4-------4-------4-----4-5-4-2-0-|
--2-2-2-2-2-2-2-2-2-2-2-2-2-2-2-----------|


  S T T S S T T S S S S T T S S T T S S S  
------------------------------------------|
------------------------------------------|
------------------------------------------|
--2-2-2-2-2-2-2-2-2-2---------------------|
----------------------2-2-2-2-2-2-2-2-2-2-|
------------------------------------------|


  S T T S S T T S S T T S S T T S S S S S  
------------------------------------------|
------------------------------------------|
------------------------------------------|
--4-------4-------4-------4---------------|
--4-------4-------4-------4-----4-5-4-2-0-|
--2-2-2-2-2-2-2-2-2-2-2-2-2-2-2-----------|


  S T T S S T T S S S S T T S S T T S S S  
------------------------------------------|
------------------------------------------|
------------------------------------------|
--2-2-2-2-2-2-2-2-2-2---------------------|
----------------------2-2-2-2-2-2-2-2-2-2-|
------------------------------------------|


  S T T S S T T S S T T S S T T S S S S S  
------------------------------------------|
------------------------------------------|
------------------------------------------|
--4-------4-------4-------4---------------|
--4-------4-------4-------4-----4-5-4-2-0-|
--2-2-2-2-2-2-2-2-2-2-2-2-2-2-2-----------|


  S T T S S T T S S S S T T S S T T S S S  
------------------------------------------|
------------------------------------------|
------------------------------------------|
--2-2-2-2-2-2-2-2-2-2---------------------|
----------------------2-2-2-2-2-2-2-2-2-2-|
------------------------------------------|


  S T T S S T T S S T T S S T T S S S S S  
------------------------------------------|
------------------------------------------|
------------------------------------------|
--4-------4-------4-------4---------------|
--4-------4-------4-------4-----4-5-4-2-0-|
--2-2-2-2-2-2-2-2-2-2-2-2-2-2-2-----------|


  S T T S S T T S S S S T T S S T T S S S   
------------------------------------------||
------------------------------------------||
------------------------------------------||
--2-2-2-2-2-2-2-2-2-2---------------------||
----------------------2-2-2-2-2-2-2-2-2-2-||
------------------------------------------||

Rhythm Guitar



      S S T T S S S T T S S S T T S T T S T T S  
B ||--------------------------------------------|
F#||--------------------------------------------|
D ||--------------------------------------------|
A ||--------------------------------------------|
E ||--------------------------------3-2-0-------|
B ||--0-0-3-2-0-0-0-3-2-0-0-0-3-2-0-------3-2-0-|


  S S T T S S S T T S S S T T S T T S T T S  
--------------------------------------------|
--------------------------------------------|
--------------------------------------------|
--------------------------------------------|
--------------------------------3-2-0-------|
--0-0-3-2-0-0-0-3-2-0-0-0-3-2-0-------3-2-0-|


  S S T T S S S T T S S S T T S T T S T T S  
--------------------------------------------|
--------------------------------------------|
--------------------------------------------|
--------------------------------------------|
--------------------------------3-2-0-------|
--0-0-3-2-0-0-0-3-2-0-0-0-3-2-0-------3-2-0-|


  S S T T S S S T T S S S T T S T T S T T S  
--------------------------------------------|
--------------------------------------------|
--------------------------------------------|
--------------------------------------------|
--------------------------------3-2-0-------|
--0-0-3-2-0-0-0-3-2-0-0-0-3-2-0-------3-2-0-|


  S T T S S S S T S  S S S T T S S S T T S  
-------------------------------------------|
-------------------------------------------|
-------------------------------------------|
------------3-3---3--4---------------------|
------------3-3---3--4-----3-2-0-----------|
--0-0-0-0-0-1-1-0-1s-2-0-0-------0-0-3-2-0-|


  S T T S S S S T S  S S S T T S S S T T S  
-------------------------------------------|
-------------------------------------------|
-------------------------------------------|
------------3-3---3--4---------------------|
------------3-3---3--4-----3-2-0-----------|
--0-0-0-0-0-1-1-0-1s-2-0-0-------0-0-3-2-0-|


  S T T S S S S T S  S S S T T S S S T T S  
-------------------------------------------|
-------------------------------------------|
-------------------------------------------|
------------3-3---3--4---------------------|
------------3-3---3--4-----3-2-0-----------|
--0-0-0-0-0-1-1-0-1s-2-0-0-------0-0-3-2-0-|


  S T T S S S S T S  S S S T T S S S T T S  
-------------------------------------------|
-------------------------------------------|
-------------------------------------------|
------------3-3---3--4---------------------|
------------3-3---3--4-----3-2-0-----------|
--0-0-0-0-0-1-1-0-1s-2-0-0-------0-0-3-2-0-|


  S S T T S S S T T S S S T T S T T S T T S  
--------------------------------------------|
--------------------------------------------|
--------------------------------------------|
--------------------------------------------|
--------------------------------3-2-0-------|
--0-0-3-2-0-0-0-3-2-0-0-0-3-2-0-------3-2-0-|


  S S T T S S S T T S S S T T S T T S T T S  
--------------------------------------------|
--------------------------------------------|
--------------------------------------------|
--------------------------------------------|
--------------------------------3-2-0-------|
--0-0-3-2-0-0-0-3-2-0-0-0-3-2-0-------3-2-0-|


  S S T T S S S T T S S S T T S T T S T T S  
--------------------------------------------|
--------------------------------------------|
--------------------------------------------|
--------------------------------------------|
--------------------------------3-2-0-------|
--0-0-3-2-0-0-0-3-2-0-0-0-3-2-0-------3-2-0-|


  S S T T S S S T T S S S T T S T T S T T S  
--------------------------------------------|
--------------------------------------------|
--------------------------------------------|
--------------------------------------------|
--------------------------------3-2-0-------|
--0-0-3-2-0-0-0-3-2-0-0-0-3-2-0-------3-2-0-|


  S S T T S S S T T S S S T T S T T S T T S  
--------------------------------------------|
--------------------------------------------|
--------------------------------------------|
--------------------------------------------|
--------------------------------3-2-0-------|
--0-0-3-2-0-0-0-3-2-0-0-0-3-2-0-------3-2-0-|


  S S T T S S S T T S S S T T S T T S T T S  
--------------------------------------------|
--------------------------------------------|
--------------------------------------------|
--------------------------------------------|
--------------------------------3-2-0-------|
--0-0-3-2-0-0-0-3-2-0-0-0-3-2-0-------3-2-0-|


  S S T T S S S T T S S S T T S T T S T T S  
--------------------------------------------|
--------------------------------------------|
--------------------------------------------|
--------------------------------------------|
--------------------------------3-2-0-------|
--0-0-3-2-0-0-0-3-2-0-0-0-3-2-0-------3-2-0-|


  S S T T S S S T T S S S T T S T T S T T S  
--------------------------------------------|
--------------------------------------------|
--------------------------------------------|
--------------------------------------------|
--------------------------------3-2-0-------|
--0-0-3-2-0-0-0-3-2-0-0-0-3-2-0-------3-2-0-|


  S T T S S S S T S  S S S T T S S S T T S  
-------------------------------------------|
-------------------------------------------|
-------------------------------------------|
------------3-3---3--4---------------------|
------------3-3---3--4-----3-2-0-----------|
--0-0-0-0-0-1-1-0-1s-2-0-0-------0-0-3-2-0-|


  S T T S S S S T S  S S S T T S S S T T S  
-------------------------------------------|
-------------------------------------------|
-------------------------------------------|
------------3-3---3--4---------------------|
------------3-3---3--4-----3-2-0-----------|
--0-0-0-0-0-1-1-0-1s-2-0-0-------0-0-3-2-0-|


  S T T S S S S T S  S S S T T S S S T T S  
-------------------------------------------|
-------------------------------------------|
-------------------------------------------|
------------3-3---3--4---------------------|
------------3-3---3--4-----3-2-0-----------|
--0-0-0-0-0-1-1-0-1s-2-0-0-------0-0-3-2-0-|


  S T T S S S S T S  S S S T T S S S T T S  
-------------------------------------------|
-------------------------------------------|
-------------------------------------------|
------------3-3---3--4---------------------|
------------3-3---3--4-----3-2-0-----------|
--0-0-0-0-0-1-1-0-1s-2-0-0-------0-0-3-2-0-|


  S T T S S T T S S T T S S T T S S S S S  
------------------------------------------|
------------------------------------------|
------------------------------------------|
--4-------4-------4-------4---------------|
--4-------4-------4-------4-----4-5-4-2-0-|
--2-2-2-2-2-2-2-2-2-2-2-2-2-2-2-----------|


  S T T S S T T S S S S T T S S T T S S S  
------------------------------------------|
------------------------------------------|
------------------------------------------|
--2-2-2-2-2-2-2-2-2-2---------------------|
----------------------2-2-2-2-2-2-2-2-2-2-|
------------------------------------------|


  S T T S S T T S S T T S S T T S S S S S  
------------------------------------------|
------------------------------------------|
------------------------------------------|
--4-------4-------4-------4---------------|
--4-------4-------4-------4-----4-5-4-2-0-|
--2-2-2-2-2-2-2-2-2-2-2-2-2-2-2-----------|


  S T T S S T T S S S S T T S S T T S S S  
------------------------------------------|
------------------------------------------|
------------------------------------------|
--2-2-2-2-2-2-2-2-2-2---------------------|
----------------------2-2-2-2-2-2-2-2-2-2-|
------------------------------------------|


  S T T S S T T S S T T S S T T S S S S S  
------------------------------------------|
------------------------------------------|
------------------------------------------|
--4-------4-------4-------4---------------|
--4-------4-------4-------4-----4-5-4-2-0-|
--2-2-2-2-2-2-2-2-2-2-2-2-2-2-2-----------|


  S T T S S T T S S S S T T S S T T S S S  
------------------------------------------|
------------------------------------------|
------------------------------------------|
--2-2-2-2-2-2-2-2-2-2---------------------|
----------------------2-2-2-2-2-2-2-2-2-2-|
------------------------------------------|


  S T T S S T T S S T T S S T T S S S S S  
------------------------------------------|
------------------------------------------|
------------------------------------------|
--4-------4-------4-------4---------------|
--4-------4-------4-------4-----4-5-4-2-0-|
--2-2-2-2-2-2-2-2-2-2-2-2-2-2-2-----------|


  S T T S S T T S S S S T T S S T T S S S  
------------------------------------------|
------------------------------------------|
------------------------------------------|
--2-2-2-2-2-2-2-2-2-2---------------------|
----------------------2-2-2-2-2-2-2-2-2-2-|
------------------------------------------|


  PM PM PM PM PM PM PM PM PM PM PM PM    PM PM PM PM PM PM PM PM  
  S  E  S  E  S  E  S  E  S  S  S  S     S  E  S  E  S  E  S  E   
--------------------------------------|--------------------------|
--------------------------------------|--------------------------|
--------------------------1--2--1-----|--------------------------|
--2--2--3--3--2--2--3--3-----------3--|--2--2--3--3--2--2--3--3--|
--2--2--3--3--2--2--3--3--------------|--2--2--3--3--2--2--3--3--|
--0--0--1--1--0--0--1--1--------------|--0--0--1--1--0--0--1--1--|


  PM PM PM PM PM PM PM PM PM PM PM PM    PM PM PM PM PM PM PM PM  
  S  E  S  E  S  E  S  E  S  S  S  S     S  E  S  E  S  E  S  E   
--------------------------------------|--------------------------|
--------------------------------------|--------------------------|
--------------------------1--2--1-----|--------------------------|
--2--2--3--3--2--2--3--3-----------3--|--2--2--3--3--2--2--3--3--|
--2--2--3--3--2--2--3--3--------------|--2--2--3--3--2--2--3--3--|
--0--0--1--1--0--0--1--1--------------|--0--0--1--1--0--0--1--1--|


  S  E  S   E  S  E  S   E  S S S S  
------------------------------------|
------------------------------------|
--7s-9--9s-10--7s-9--9s-10----------|
--7s-9--9s-10--7s-9--9s-10--6-7-6---|
--5s-7--7s--8--5s-7--7s--8--------8-|
------------------------------------|


  S  E  S   E  S  E  S   E  T  T  T  T  T  T  T  T   
----------------------------------------------------|
----------------------------------------------------|
--7s-9--9s-10--7s-9--9s-10--6h-7p-6h-7p-6h-7p-6h-7h-|
--7s-9--9s-10--7s-9--9s-10--------------------------|
--5s-7--7s--8--5s-7--7s--8--------------------------|
----------------------------------------------------|


  S  E  S   E  S  E  S   E  S S S S  
------------------------------------|
------------------------------------|
--7s-9--9s-10--7s-9--9s-10----------|
--7s-9--9s-10--7s-9--9s-10--6-7-6---|
--5s-7--7s--8--5s-7--7s--8--------8-|
------------------------------------|


  S  E  S   E  S  E  S   E  T  T  T  T  T  T  T  T  
---------------------------------------------------|
---------------------------------------------------|
--7s-9--9s-10--7s-9--9s-10--6h-7p-6h-7p-6h-7p-6h-7-|
--7s-9--9s-10--7s-9--9s-10-------------------------|
--5s-7--7s--8--5s-7--7s--8-------------------------|
---------------------------------------------------|


  S S T T S S S T T S S S T T S T T S T T S  
--------------------------------------------|
--------------------------------------------|
--------------------------------------------|
--------------------------------------------|
--------------------------------3-2-0-------|
--0-0-3-2-0-0-0-3-2-0-0-0-3-2-0-------3-2-0-|


  S S T T S S S T T S S S T T S T T S T T S  
--------------------------------------------|
--------------------------------------------|
--------------------------------------------|
--------------------------------------------|
--------------------------------3-2-0-------|
--0-0-3-2-0-0-0-3-2-0-0-0-3-2-0-------3-2-0-|


  S S T T S S S T T S S S T T S T T S T T S  
--------------------------------------------|
--------------------------------------------|
--------------------------------------------|
--------------------------------------------|
--------------------------------3-2-0-------|
--0-0-3-2-0-0-0-3-2-0-0-0-3-2-0-------3-2-0-|


  S S T T S S S T T S S S T T S T T S T T S  
--------------------------------------------|
--------------------------------------------|
--------------------------------------------|
--------------------------------------------|
--------------------------------3-2-0-------|
--0-0-3-2-0-0-0-3-2-0-0-0-3-2-0-------3-2-0-|


  S T T S S S S T S  S S S T T S S S T T S  
-------------------------------------------|
-------------------------------------------|
-------------------------------------------|
------------3-3---3--4---------------------|
------------3-3---3--4-----3-2-0-----------|
--0-0-0-0-0-1-1-0-1s-2-0-0-------0-0-3-2-0-|


  S T T S S S S T S  S S S T T S S S T T S  
-------------------------------------------|
-------------------------------------------|
-------------------------------------------|
------------3-3---3--4---------------------|
------------3-3---3--4-----3-2-0-----------|
--0-0-0-0-0-1-1-0-1s-2-0-0-------0-0-3-2-0-|


  S T T S S S S T S  S S S T T S S S T T S  
-------------------------------------------|
-------------------------------------------|
-------------------------------------------|
------------3-3---3--4---------------------|
------------3-3---3--4-----3-2-0-----------|
--0-0-0-0-0-1-1-0-1s-2-0-0-------0-0-3-2-0-|


  S T T S S S S T S  S S S T T S S S T T S  
-------------------------------------------|
-------------------------------------------|
-------------------------------------------|
------------3-3---3--4---------------------|
------------3-3---3--4-----3-2-0-----------|
--0-0-0-0-0-1-1-0-1s-2-0-0-------0-0-3-2-0-|


  S T T S S T T S S T T S S T T S S S S S  
------------------------------------------|
------------------------------------------|
------------------------------------------|
--4-------4-------4-------4---------------|
--4-------4-------4-------4-----4-5-4-2-0-|
--2-2-2-2-2-2-2-2-2-2-2-2-2-2-2-----------|


  S T T S S T T S S S S T T S S T T S S S  
------------------------------------------|
------------------------------------------|
------------------------------------------|
--2-2-2-2-2-2-2-2-2-2---------------------|
----------------------2-2-2-2-2-2-2-2-2-2-|
------------------------------------------|


  S T T S S T T S S T T S S T T S S S S S  
------------------------------------------|
------------------------------------------|
------------------------------------------|
--4-------4-------4-------4---------------|
--4-------4-------4-------4-----4-5-4-2-0-|
--2-2-2-2-2-2-2-2-2-2-2-2-2-2-2-----------|


  S T T S S T T S S S S T T S S T T S S S  
------------------------------------------|
------------------------------------------|
------------------------------------------|
--2-2-2-2-2-2-2-2-2-2---------------------|
----------------------2-2-2-2-2-2-2-2-2-2-|
------------------------------------------|


  S T T S S T T S S T T S S T T S S S S S  
------------------------------------------|
------------------------------------------|
------------------------------------------|
--4-------4-------4-------4---------------|
--4-------4-------4-------4-----4-5-4-2-0-|
--2-2-2-2-2-2-2-2-2-2-2-2-2-2-2-----------|


  S T T S S T T S S S S T T S S T T S S S  
------------------------------------------|
------------------------------------------|
------------------------------------------|
--2-2-2-2-2-2-2-2-2-2---------------------|
----------------------2-2-2-2-2-2-2-2-2-2-|
------------------------------------------|


  S T T S S T T S S T T S S T T S S S S S  
------------------------------------------|
------------------------------------------|
------------------------------------------|
--4-------4-------4-------4---------------|
--4-------4-------4-------4-----4-5-4-2-0-|
--2-2-2-2-2-2-2-2-2-2-2-2-2-2-2-----------|


  S T T S S T T S S S S T T S S T T S S S     H          H         
------------------------------------------|-----------------------|
------------------------------------------|-----------------------|
------------------------------------------|--11s--------14--------|
--2-2-2-2-2-2-2-2-2-2---------------------|-----------------------|
----------------------2-2-2-2-2-2-2-2-2-2-|-----------------------|
------------------------------------------|-----------------------|


   E   E   E   E   E   E   E  E   
---------------------------------|
---------------------------------|
--14--14--13--13--11s--9--11--9--|
---------------------------------|
---------------------------------|
---------------------------------|


   E   S  Q    E    Q     E    Q     E    Q     E    Q     E    Q     E   E   E 
---------------9s--14----14s--21----21s--17----17s--16----16s--14---------------
---------10----------------------------------------------------------14--14--13-
--11--11------------------------------------------------------------------------
--------------------------------------------------------------------------------
--------------------------------------------------------------------------------
--------------------------------------------------------------------------------


   H          H            E   E   E   E   E   E   E  E   
-----------------------|---------------------------------|
-----------------------|---------------------------------|
--11s--------14--------|--14--14--13--13--11s--9--11--9--|
-----------------------|---------------------------------|
-----------------------|---------------------------------|
-----------------------|---------------------------------|


   E   S  Q    E    Q     E    Q     E    Q     E    Q     E    Q     E   E   E 
---------------9s--14----14s--21----21s--17----17s--16----16s--14---------------
---------10----------------------------------------------------------14--14--13-
--11--11------------------------------------------------------------------------
--------------------------------------------------------------------------------
--------------------------------------------------------------------------------
--------------------------------------------------------------------------------


  PM PM PM PM PM PM PM PM PM PM PM PM    PM PM PM PM PM PM PM PM  
  S  E  S  E  S  E  S  E  S  S  S  S     S  E  S  E  S  E  S  E   
--------------------------------------|--------------------------|
--------------------------------------|--------------------------|
--------------------------1--2--1-----|--------------------------|
--2--2--3--3--2--2--3--3-----------3--|--2--2--3--3--2--2--3--3--|
--2--2--3--3--2--2--3--3--------------|--2--2--3--3--2--2--3--3--|
--0--0--1--1--0--0--1--1--------------|--0--0--1--1--0--0--1--1--|


  PM PM PM PM PM PM PM PM PM PM PM PM    PM PM PM PM PM PM PM PM  
  S  E  S  E  S  E  S  E  S  S  S  S     S  E  S  E  S  E  S  E   
--------------------------------------|--------------------------|
--------------------------------------|--------------------------|
--------------------------1--2--1-----|--------------------------|
--2--2--3--3--2--2--3--3-----------3--|--2--2--3--3--2--2--3--3--|
--2--2--3--3--2--2--3--3--------------|--2--2--3--3--2--2--3--3--|
--0--0--1--1--0--0--1--1--------------|--0--0--1--1--0--0--1--1--|


  S  E  S   E  S  E  S   E  S S S S  
------------------------------------|
------------------------------------|
--7s-9--9s-10--7s-9--9s-10----------|
--7s-9--9s-10--7s-9--9s-10--6-7-6---|
--5s-7--7s--8--5s-7--7s--8--------8-|
------------------------------------|


  S  E  S   E  S  E  S   E  T  T  T  T  T  T  T  T   
----------------------------------------------------|
----------------------------------------------------|
--7s-9--9s-10--7s-9--9s-10--6h-7p-6h-7p-6h-7p-6h-7h-|
--7s-9--9s-10--7s-9--9s-10--------------------------|
--5s-7--7s--8--5s-7--7s--8--------------------------|
----------------------------------------------------|


  S  E  S   E  S  E  S   E  S S S S  
------------------------------------|
------------------------------------|
--7s-9--9s-10--7s-9--9s-10----------|
--7s-9--9s-10--7s-9--9s-10--6-7-6---|
--5s-7--7s--8--5s-7--7s--8--------8-|
------------------------------------|


  S  E  S   E  S  E  S   E  T  T  T  T  T  T  T  T   
----------------------------------------------------|
----------------------------------------------------|
--7s-9--9s-10--7s-9--9s-10--6h-7p-6h-7p-6h-7p-6h-7h-|
--7s-9--9s-10--7s-9--9s-10--------------------------|
--5s-7--7s--8--5s-7--7s--8--------------------------|
----------------------------------------------------|


  S  E  S   E  S  E  S   E  S S S S  
------------------------------------|
------------------------------------|
--7s-9--9s-10--7s-9--9s-10----------|
--7s-9--9s-10--7s-9--9s-10--6-7-6---|
--5s-7--7s--8--5s-7--7s--8--------8-|
------------------------------------|


  S  E  S   E  S  E  S   E  T  T  T  T  T  T  T  T   
----------------------------------------------------|
----------------------------------------------------|
--7s-9--9s-10--7s-9--9s-10--6h-7p-6h-7p-6h-7p-6h-7h-|
--7s-9--9s-10--7s-9--9s-10--------------------------|
--5s-7--7s--8--5s-7--7s--8--------------------------|
----------------------------------------------------|


  S  E  S   E  S  E  S   E  S S S S  
------------------------------------|
------------------------------------|
--7s-9--9s-10--7s-9--9s-10----------|
--7s-9--9s-10--7s-9--9s-10--6-7-6---|
--5s-7--7s--8--5s-7--7s--8--------8-|
------------------------------------|


  S  E  S   E  S  E  S   E  T  T  T  T  T  T  T  T   
----------------------------------------------------|
----------------------------------------------------|
--7s-9--9s-10--7s-9--9s-10--6h-7p-6h-7p-6h-7p-6h-7h-|
--7s-9--9s-10--7s-9--9s-10--------------------------|
--5s-7--7s--8--5s-7--7s--8--------------------------|
----------------------------------------------------|


  S T T S S T T S S T T S S T T S S S S S  
------------------------------------------|
------------------------------------------|
------------------------------------------|
--4-------4-------4-------4---------------|
--4-------4-------4-------4-----4-5-4-2-0-|
--2-2-2-2-2-2-2-2-2-2-2-2-2-2-2-----------|


  S T T S S T T S S S S T T S S T T S S S  
------------------------------------------|
------------------------------------------|
------------------------------------------|
--2-2-2-2-2-2-2-2-2-2---------------------|
----------------------2-2-2-2-2-2-2-2-2-2-|
------------------------------------------|


  S T T S S T T S S T T S S T T S S S S S  
------------------------------------------|
------------------------------------------|
------------------------------------------|
--4-------4-------4-------4---------------|
--4-------4-------4-------4-----4-5-4-2-0-|
--2-2-2-2-2-2-2-2-2-2-2-2-2-2-2-----------|


  S T T S S T T S S S S T T S S T T S S S  
------------------------------------------|
------------------------------------------|
------------------------------------------|
--2-2-2-2-2-2-2-2-2-2---------------------|
----------------------2-2-2-2-2-2-2-2-2-2-|
------------------------------------------|


  S T T S S T T S S T T S S T T S S S S S  
------------------------------------------|
------------------------------------------|
------------------------------------------|
--4-------4-------4-------4---------------|
--4-------4-------4-------4-----4-5-4-2-0-|
--2-2-2-2-2-2-2-2-2-2-2-2-2-2-2-----------|


  S T T S S T T S S S S T T S S T T S S S  
------------------------------------------|
------------------------------------------|
------------------------------------------|
--2-2-2-2-2-2-2-2-2-2---------------------|
----------------------2-2-2-2-2-2-2-2-2-2-|
------------------------------------------|


  S T T S S T T S S T T S S T T S S S S S  
------------------------------------------|
------------------------------------------|
------------------------------------------|
--4-------4-------4-------4---------------|
--4-------4-------4-------4-----4-5-4-2-0-|
--2-2-2-2-2-2-2-2-2-2-2-2-2-2-2-----------|


  S T T S S T T S S S S T T S S T T S S S   
------------------------------------------||
------------------------------------------||
------------------------------------------||
--2-2-2-2-2-2-2-2-2-2---------------------||
----------------------2-2-2-2-2-2-2-2-2-2-||
------------------------------------------||
Добавлено: 02.03.2012
Другие материалы по этой песне:

Страница создана 02.03.2012
http://primanota.ru/five-finger-death-punch/the-way-of-the-fist-chords.htm
Привет, Гость.
Предлагаем пройти революционный курс по гитаре.
Подарок от PrimaNota.Ru, забирай!