PrimaNota.ru - самый крупный в мире бесплатный архив песенных текстов, аккордов, табулатур и нот


Five Finger Death Punch - The Pride - текст песни, таба, видео

Регистрация Запомнить меня
Войти через:  Facebook Google Twitter Vk Yandex Mail.ru

Five Finger Death Punch - The Pride - текст песни, таба, видео

Печатать
Просмотров: 981
Уроки эстрадного вокала в Санкт-Петербурге
Авторы музыки: Ivan Moody, Jeremy Spencer, Kevin Churko, Zoltan Bathory, Jason Hook
Авторы текста: Ivan Moody, Jeremy Spencer, Kevin Churko, Zoltan Bathory, Jason Hook
----------------------------------------------------------------------------
                                The Pride
                          Five Finger Death Punch
----------------------------------------------------------------------------

Finally, the new FFDP album has arrived, and even if it is kind of different to their
usual stuff, I think it is a great twist. This song reminds me a lot about We Didn't Start
The Fire, and it is very patriotic. I hope this tab helps, and if you're having trouble 
with it, check out my cover. Enjoy!

Username: dkm817 (same on X box live)
Youtube Cover: http://www.youtube.com/watch?v=_to3W5PBHlo
Email: guitardrums@rockfan.com

Guitar 1 Rhythmic (B F# B E G# C#)
Guitar 2 Lead     (B F# B E G# C#)


Tab Guide...

===================================================================
(end of measures)

===================================================================
===================================================================
(end of parts)

===================================================================
===================================================================
===================================================================
(end of song)

(If there is a “continued” it is because the numbers could not
fit on 1 line.)


Intro 1

Guitar 1
C#-----------------------------------------------------------------|
G#-15~~~~~-----------------15~~~~~-------------------------15~~~~~-|
E -----------------------------------------------------------------|
B -----------------------------------------------------------------|
F#-----------------------------------------------------------------|
B -----------------------------------------------------------------|

Guitar 2
C#---------17~~~~~-15~~~~~-17~~~~~---------17~~~~~-15~~~~~-17~~~~~-|
G#-15~~~~~-------------------------15~~~~~-------------------------|
E -----------------------------------------------------------------|
B -----------------------------------------------------------------|
F#-----------------------------------------------------------------|
B -----------------------------------------------------------------|

===================================================================

Guitar 1
C#-------------------------------------------------13~~~~~-15~~~~~-|
G#-------------------------15~~~~~~~~~~~~~-13--15------------------|
E -----------------------------------------------------------------|
B -----------------------------------------------------------------|
F#-----------------------------------------------------------------|
B -----------------------------------------------------------------|

Guitar 2
C#---------17~~~~~-15~~~~~-17~~~~~---------------------------------|
G#-15~~~~~---------------------------------------------------------|
E -----------------------------------------------------------------|
B -----------------------------------------------------------------|
F#-----------------------------------------------------------------|
B -----------------------------------------------------------------|

===================================================================

Guitar 1
C#-----------------------------------------------------------------|
G#-15~~~~~-----------------15~~~~~-------------------------15~~~~~-|
E -----------------------------------------------------------------|
B -----------------------------------------------------------------|
F#-----------------------------------------------------------------|
B -----------------------------------------------------------------|

Guitar 2
C#---------17~~~~~-15~~~~~-17~~~~~---------17~~~~~-15~~~~~-17~~~~~-|
G#-15~~~~~-------------------------15~~~~~-------------------------|
E -----------------------------------------------------------------|
B -----------------------------------------------------------------|
F#-----------------------------------------------------------------|
B -----------------------------------------------------------------|

===================================================================

Guitar 1
C#-----------------13~~~~~-----------------------------------------|
G#-13~~~~~-15~~~~~---------15~~~~~~~~~-13--15----------------------|
E -----------------------------------------------------------------|
B -----------------------------------------------------------------|
F#-----------------------------------------------------------------|
B -----------------------------------------------------------------|

Guitar 2
C#---------17~~~~~-15~~~~~-17~~~~~---------------------------------|
G#-15~~~~~---------------------------------------------------------|
E -----------------------------------------------------------------|
B -----------------------------------------------------------------|
F#-----------------------------------------------------------------|
B -----------------------------------------------------------------|

===================================================================
===================================================================


Intro 2

(X2)

Guitar 1
C#-----------------------------------------------------------------|
G#-----------------------------------------------------------------|
E -----------------------------------------------------------------|
B -0~~~~~~~~~~~~~~-0---0---0~~~~~~~~~~-0-------0---0~~~~~~-0---0---|
F#-0~~~~~~~~~~~~~~-0---0---0~~~~~~~~~~-0-------0---0~~~~~~-0---0---|
B -0~~~~~~~~~~~~~~-0---0---0~~~~~~~~~~-0-------0---0~~~~~~-0---0---|
pm                 .   .               .       .           .   .

Guitar 2
C#---------17~~~~~-15~~~~~-----------------17~~~~~-15~~~~~---------|
G#-15~~~~~-----------------15~~~~~~~~~~~~~-----------------15~~~~~-|
E -----------------------------------------------------------------|
B -----------------------------------------------------------------|
F#-----------------------------------------------------------------|
B -----------------------------------------------------------------|

===================================================================

Guitar 1
C#-----------------------------------------------------------------|
G#-----------------------------------------------------------------|
E -----------------------------------------------------------------|
B -8~~~~~~~~~~~~~~-8---8---8~~~~~~~~~~-8-------8---8~~~~~~-8---8---|
F#-8~~~~~~~~~~~~~~-8---8---8~~~~~~~~~~-8-------8---8~~~~~~-8---8---|
B -8~~~~~~~~~~~~~~-8---8---8~~~~~~~~~~-8-------8---8~~~~~~-8---8---|
pm                 .   .               .       .           .   .

Guitar 2
C#---------17~~~~~-15~~~~~-----------------17~~~~~-15~~~~~---------|
G#-15~~~~~-----------------15~~~~~~~~~~~~~-----------------15~~~~~-|
E -----------------------------------------------------------------|
B -----------------------------------------------------------------|
F#-----------------------------------------------------------------|
B -----------------------------------------------------------------|

===================================================================

Guitar 1
C#-----------------------------------------------------------------|
G#-----------------------------------------------------------------|
E -----------------------------------------------------------------|
B -8~~~~~~~~~~~~~~-5---5---5~~~~~~~~~~-5-------5---5~~~~~~-5---5---|
F#-8~~~~~~~~~~~~~~-5---5---5~~~~~~~~~~-5-------5---5~~~~~~-5---5---|
B -5~~~~~~~~~~~~~~-5---5---5~~~~~~~~~~-5-------5---5~~~~~~-5---5---|
pm                 .   .               .       .           .   .

Guitar 2
C#---------17~~~~~-15~~~~~-----------------17~~~~~-15~~~~~---------|
G#-15~~~~~-----------------15~~~~~~~~~~~~~-----------------15~~~~~-|
E -----------------------------------------------------------------|
B -----------------------------------------------------------------|
F#-----------------------------------------------------------------|
B -----------------------------------------------------------------|

===================================================================

Guitar 1
C#-----------------------------------------------------------------|
G#-----------------------------------------------------------------|
E -----------------------------------------------------------------|
B -8~~~~~~~~~~~~~~-8---8---10~~~~~~~~~-10------10--10~~~~~-10--10--|
F#-8~~~~~~~~~~~~~~-8---8---10~~~~~~~~~-10------10--10~~~~~-10--10--|
B -8~~~~~~~~~~~~~~-8---8---10~~~~~~~~~-10------10--10~~~~~-10--10--|
pm                 .   .               .       .           .   .

Guitar 2
C#-----------------13~~~~~-15--13------------------13~~~~~-15~~~~~-|
G#-13~~~~~-15~~~~~-----------------13~~~~~-13--15------------------|
E -----------------------------------------------------------------|
B -----------------------------------------------------------------|
F#-----------------------------------------------------------------|
B -----------------------------------------------------------------|

===================================================================
===================================================================


Verse 1

Guitar 1 & 2
C#-----------------------------------------------------------------|
G#-----------------------------------------------------------------|
E -----------------------------------------------------------------|
B -------------------------------------3---2-------5---3---2-------|
F#-------------------------3---5-------------------------------3---|
B -3h5p3-0~~~~~~~~-0---0-----------0-----------0-------------------|
pm                 .   .           .           .   .   .   .

===================================================================

Guitar 1
C#-----------------------------------------------------------------|
G#-----------------------------------------------------------------|
E -----------------------------------------------------------------|
B -------------------------------------3---2-----------5~~~~~~~~~~-|
F#-------------------------3---5-------------------3---5~~~~~~~~~~-|
B -3h5p3-0~~~~~~~~-0---0-----------0-----------0-------5~~~~~~~~~~-|
pm                 .   .           .           .

Guitar 2
C#-----------------------------------------------------------------|
G#-----------------------------------------------------------------|
E -----------------------------------------------------------------|
B -------------------------------------3---2-----------5~~~~~~~~~~-|
F#-3*~~~~~~~~~~~~~---------3---5-------------------3---5~~~~~~~~~~-|
B -----------------0---0-----------0-----------0-------5~~~~~~~~~~-|
pm                 .   .           .           .

===================================================================

(x4)

Guitar 1 & 2
C#-----------------------------------------------------------------|
G#-----------------------------------------------------------------|
E -----------------------------------------------------------------|
B -------------------------------------3---2-------5---3---2-------|
F#-------------------------3---5-------------------------------3---|
B -3h5p3-0~~~~~~~~-0---0-----------0-----------0-------------------|
pm                 .   .           .           .   .   .   .

Guitar 1 & 2
C#-----------------------------------------------------------------|
G#-----------------------------------------------------------------|
E -----------------------------------------------------------------|
B -------------------------------------3---2-------3---2-----------|
F#-------------------------3---5---------------------------3---0---|
B -3h5p3-0~~~~~~~~-0---0-----------0-----------0-------------------|
pm                 .   .           .           .   .   .   .   .

===================================================================
===================================================================


Pre Chorus

Guitar 1 & 2
C#-----------------------------------------------------------------|
G#-----------------------------------------------------------------|
E -2~~~~~~~~~~~~~~-2-------2~~~~~~~~~~~~~~-2-------2~~~~~~-2-------|
B -x---------------x-------x---------------x-------x-------x-------|
F#-3~~~~~~~~~~~~~~-3-------3~~~~~~~~~~~~~~-3-------3~~~~~~-3-------|
B -3~~~~~~~~~~~~~~-3-------3~~~~~~~~~~~~~~-3-------3~~~~~~-3-------|
pm                 .                       .               .

Guitar 1 & 2
C#-----------------------------------------------------------------|
G#-----------------------------------------------------------------|
E -2~~~~~~~~~~~~~~-2-------2~~~~~~~~~~~~~~-2-------2~~~~~~-2-------|
B -x---------------x-------x---------------x-------x-------x-------|
F#-2~~~~~~~~~~~~~~-2-------2~~~~~~~~~~~~~~-2-------2~~~~~~-2-------|
B -2~~~~~~~~~~~~~~-2-------2~~~~~~~~~~~~~~-2-------2~~~~~~-2-------|
pm                 .                       .               .

===================================================================
===================================================================


Chorus

(X2)

Guitar 1
C#-----------------------------------------------------------------|
G#-----------------------------------------------------------------|
E -----------------------------------------------------------------|
B -0~~~~~~~~~~~~~~-0---0---0~~~~~~~~~~-0-------0---0~~~~~~-0---0---|
F#-0~~~~~~~~~~~~~~-0---0---0~~~~~~~~~~-0-------0---0~~~~~~-0---0---|
B -0~~~~~~~~~~~~~~-0---0---0~~~~~~~~~~-0-------0---0~~~~~~-0---0---|
pm                 .   .               .       .           .   .

Guitar 2
C#---------17~~~~~-15~~~~~-----------------17~~~~~-15~~~~~---------|
G#-15~~~~~-----------------15~~~~~~~~~~~~~-----------------15~~~~~-|
E -----------------------------------------------------------------|
B -----------------------------------------------------------------|
F#-----------------------------------------------------------------|
B -----------------------------------------------------------------|

===================================================================

Guitar 1
C#-----------------------------------------------------------------|
G#-----------------------------------------------------------------|
E -----------------------------------------------------------------|
B -8~~~~~~~~~~~~~~-8---8---8~~~~~~~~~~-8-------8---8~~~~~~-8---8---|
F#-8~~~~~~~~~~~~~~-8---8---8~~~~~~~~~~-8-------8---8~~~~~~-8---8---|
B -8~~~~~~~~~~~~~~-8---8---8~~~~~~~~~~-8-------8---8~~~~~~-8---8---|
pm                 .   .               .       .           .   .

Guitar 2
C#---------17~~~~~-15~~~~~-----------------17~~~~~-15~~~~~---------|
G#-15~~~~~-----------------15~~~~~~~~~~~~~-----------------15~~~~~-|
E -----------------------------------------------------------------|
B -----------------------------------------------------------------|
F#-----------------------------------------------------------------|
B -----------------------------------------------------------------|

===================================================================

Guitar 1
C#-----------------------------------------------------------------|
G#-----------------------------------------------------------------|
E -----------------------------------------------------------------|
B -8~~~~~~~~~~~~~~-5---5---5~~~~~~~~~~-5-------5---5~~~~~~-5---5---|
F#-8~~~~~~~~~~~~~~-5---5---5~~~~~~~~~~-5-------5---5~~~~~~-5---5---|
B -5~~~~~~~~~~~~~~-5---5---5~~~~~~~~~~-5-------5---5~~~~~~-5---5---|
pm                 .   .               .       .           .   .

Guitar 2
C#---------17~~~~~-15~~~~~-----------------17~~~~~-15~~~~~---------|
G#-15~~~~~-----------------15~~~~~~~~~~~~~-----------------15~~~~~-|
E -----------------------------------------------------------------|
B -----------------------------------------------------------------|
F#-----------------------------------------------------------------|
B -----------------------------------------------------------------|

===================================================================

Guitar 1
C#-----------------------------------------------------------------|
G#-----------------------------------------------------------------|
E -----------------------------------------------------------------|
B -8~~~~~~~~~~~~~~-8---8---10~~~~~~~~~-10------10--10~~~~~-10--10--|
F#-8~~~~~~~~~~~~~~-8---8---10~~~~~~~~~-10------10--10~~~~~-10--10--|
B -8~~~~~~~~~~~~~~-8---8---10~~~~~~~~~-10------10--10~~~~~-10--10--|
pm                 .   .               .       .           .   .

Guitar 2
C#-----------------13~~~~~-15--13------------------13~~~~~-15~~~~~-|
G#-13~~~~~-15~~~~~-----------------13~~~~~-13--15------------------|
E -----------------------------------------------------------------|
B -----------------------------------------------------------------|
F#-----------------------------------------------------------------|
B -----------------------------------------------------------------|

===================================================================
===================================================================


Bridge 1


Guitar 1 & 2
C#-----------------------------------------------------------------|
G#-----------------------------------------------------------------|
E -----------------------------------------------------------------|
B -------------------------------------3---2-------5---3---2-------|
F#-------------------------3---5-------------------------------3---|
B -3h5p3-0~~~~~~~~-0---0-----------0-----------0-------------------|
pm                 .   .           .           .   .   .   .

Guitar 1 & 2
C#-----------------------------------------------------------------|
G#-----------------------------------------------------------------|
E -----------------------------------------------------------------|
B -------------------------------------3---2-------3---2-----------|
F#-------------------------3---5---------------------------3---0---|
B -3h5p3-0~~~~~~~~-0---0-----------0-----------0-------------------|
pm                 .   .           .           .   .   .   .   .

===================================================================

Guitar 1 & 2
C#-----------------------------------------------------------------|
G#-----------------------------------------------------------------|
E -----------------------------------------------------------------|
B -------------------------------------3---2-------5---3---2-------|
F#-------------------------3---5-------------------------------3---|
B -3h5p3-0~~~~~~~~-0---0-----------0-----------0-------------------|
pm                 .   .           .           .   .   .   .

===================================================================

Guitar 1
C#-----------------------------------------------------------------|
G#-----------------------------------------------------------------|
E -----------------------------------------------------------------|
B -------------------------------------3---2-----------5~~~~~~~~~~-|
F#-------------------------3---5-------------------3---5~~~~~~~~~~-|
B -3h5p3-0~~~~~~~~-0---0-----------0-----------0-------5~~~~~~~~~~-|
pm                 .   .           .           .

Guitar 2
C#-----------------------------------------------------------------|
G#-----------------------------------------------------------------|
E -----------------------------------------------------------------|
B -------------------------------------3---2-----------5~~~~~~~~~~-|
F#-3*~~~~~~~~~~~~~---------3---5-------------------3---5~~~~~~~~~~-|
B -----------------0---0-----------0-----------0-------5~~~~~~~~~~-|
pm                 .   .           .           .

===================================================================
===================================================================


Verse

(x4)

Guitar 1 & 2
C#-----------------------------------------------------------------|
G#-----------------------------------------------------------------|
E -----------------------------------------------------------------|
B -------------------------------------3---2-------5---3---2-------|
F#-------------------------3---5-------------------------------3---|
B -3h5p3-0~~~~~~~~-0---0-----------0-----------0-------------------|
pm                 .   .           .           .   .   .   .

Guitar 1 & 2
C#-----------------------------------------------------------------|
G#-----------------------------------------------------------------|
E -----------------------------------------------------------------|
B -------------------------------------3---2-------3---2-----------|
F#-------------------------3---5---------------------------3---0---|
B -3h5p3-0~~~~~~~~-0---0-----------0-----------0-------------------|
pm                 .   .           .           .   .   .   .   .

===================================================================
===================================================================


Pre Chorus

Guitar 1 & 2
C#-----------------------------------------------------------------|
G#-----------------------------------------------------------------|
E -2~~~~~~~~~~~~~~-2-------2~~~~~~~~~~~~~~-2-------2~~~~~~-2-------|
B -x---------------x-------x---------------x-------x-------x-------|
F#-3~~~~~~~~~~~~~~-3-------3~~~~~~~~~~~~~~-3-------3~~~~~~-3-------|
B -3~~~~~~~~~~~~~~-3-------3~~~~~~~~~~~~~~-3-------3~~~~~~-3-------|
pm                 .                       .               .

Guitar 1 & 2
C#-----------------------------------------------------------------|
G#-----------------------------------------------------------------|
E -2~~~~~~~~~~~~~~-2-------2~~~~~~~~~~~~~~-2-------2~~~~~~-2-------|
B -x---------------x-------x---------------x-------x-------x-------|
F#-2~~~~~~~~~~~~~~-2-------2~~~~~~~~~~~~~~-2-------2~~~~~~-2-------|
B -2~~~~~~~~~~~~~~-2-------2~~~~~~~~~~~~~~-2-------2~~~~~~-2-------|
pm                 .                       .               .

===================================================================
===================================================================


Chorus

(X2)

Guitar 1
C#-----------------------------------------------------------------|
G#-----------------------------------------------------------------|
E -----------------------------------------------------------------|
B -0~~~~~~~~~~~~~~-0---0---0~~~~~~~~~~-0-------0---0~~~~~~-0---0---|
F#-0~~~~~~~~~~~~~~-0---0---0~~~~~~~~~~-0-------0---0~~~~~~-0---0---|
B -0~~~~~~~~~~~~~~-0---0---0~~~~~~~~~~-0-------0---0~~~~~~-0---0---|
pm                 .   .               .       .           .   .

Guitar 2
C#---------17~~~~~-15~~~~~-----------------17~~~~~-15~~~~~---------|
G#-15~~~~~-----------------15~~~~~~~~~~~~~-----------------15~~~~~-|
E -----------------------------------------------------------------|
B -----------------------------------------------------------------|
F#-----------------------------------------------------------------|
B -----------------------------------------------------------------|

===================================================================

Guitar 1
C#-----------------------------------------------------------------|
G#-----------------------------------------------------------------|
E -----------------------------------------------------------------|
B -8~~~~~~~~~~~~~~-8---8---8~~~~~~~~~~-8-------8---8~~~~~~-8---8---|
F#-8~~~~~~~~~~~~~~-8---8---8~~~~~~~~~~-8-------8---8~~~~~~-8---8---|
B -8~~~~~~~~~~~~~~-8---8---8~~~~~~~~~~-8-------8---8~~~~~~-8---8---|
pm                 .   .               .       .           .   .

Guitar 2
C#---------17~~~~~-15~~~~~-----------------17~~~~~-15~~~~~---------|
G#-15~~~~~-----------------15~~~~~~~~~~~~~-----------------15~~~~~-|
E -----------------------------------------------------------------|
B -----------------------------------------------------------------|
F#-----------------------------------------------------------------|
B -----------------------------------------------------------------|

===================================================================

Guitar 1
C#-----------------------------------------------------------------|
G#-----------------------------------------------------------------|
E -----------------------------------------------------------------|
B -8~~~~~~~~~~~~~~-5---5---5~~~~~~~~~~-5-------5---5~~~~~~-5---5---|
F#-8~~~~~~~~~~~~~~-5---5---5~~~~~~~~~~-5-------5---5~~~~~~-5---5---|
B -5~~~~~~~~~~~~~~-5---5---5~~~~~~~~~~-5-------5---5~~~~~~-5---5---|
pm                 .   .               .       .           .   .

Guitar 2
C#---------17~~~~~-15~~~~~-----------------17~~~~~-15~~~~~---------|
G#-15~~~~~-----------------15~~~~~~~~~~~~~-----------------15~~~~~-|
E -----------------------------------------------------------------|
B -----------------------------------------------------------------|
F#-----------------------------------------------------------------|
B -----------------------------------------------------------------|

===================================================================

Guitar 1
C#-----------------------------------------------------------------|
G#-----------------------------------------------------------------|
E -----------------------------------------------------------------|
B -8~~~~~~~~~~~~~~-8---8---10~~~~~~~~~-10------10--10~~~~~-10--10--|
F#-8~~~~~~~~~~~~~~-8---8---10~~~~~~~~~-10------10--10~~~~~-10--10--|
B -8~~~~~~~~~~~~~~-8---8---10~~~~~~~~~-10------10--10~~~~~-10--10--|
pm                 .   .               .       .           .   .

Guitar 2
C#-----------------13~~~~~-15--13------------------13~~~~~-15~~~~~-|
G#-13~~~~~-15~~~~~-----------------13~~~~~-13--15------------------|
E -----------------------------------------------------------------|
B -----------------------------------------------------------------|
F#-----------------------------------------------------------------|
B -----------------------------------------------------------------|

===================================================================
===================================================================


Breakdown

Guitar 1
C#-----------------------------------------------------------------|
G#-----------------------------------------------------------------|
E -----------------------------------------------------------------|
B -0---0-------0---0---0---0---0-------0-------0---3~~~~~~-5~~~~~~-|
F#-0---0-------0---0---0---0---0-------0-------0---3~~~~~~-5~~~~~~-|
B -0---0-------0---0---0---0---0-------0-------0---3~~~~~~-5~~~~~~-|
pm .   .       .       .   .   .       .       .

===================================================================

Guitar 1
C#-----------------------------------------------------------------|
G#-----------------------------------------------------------------|
E -----------------------------------------------------------------|
B -0---0-------0---0---0---0---0-------0-------0---3~~~~~~-5~~~~~~-|
F#-0---0-------0---0---0---0---0-------0-------0---3~~~~~~-5~~~~~~-|
B -0---0-------0---0---0---0---0-------0-------0---3~~~~~~-5~~~~~~-|
pm .   .       .   .   .   .   .       .       .

===================================================================

Guitar 1
C#-----------------------------------------------------------------|
G#-----------------------------------------------------------------|
E -----------------------------------------------------------------|
B -0---0-------0---0---0---0---0-------0-------0---3~~~~~~-5~~~~~~-|
F#-0---0-------0---0---0---0---0-------0-------0---3~~~~~~-5~~~~~~-|
B -0---0-------0---0---0---0---0-------0-------0---3~~~~~~-5~~~~~~-|
pm .   .       .       .   .   .       .       .

===================================================================

Guitar 1
C#-----------------------------------------------------------------|
G#-----------------------------------------------------------------|
E -----------------------------------------------------------------|
B -0---0-------0---0---0---0---0-------0-------0---3~~~~~~-5~~~~~~-|
F#-0---0-------0---0---0---0---0-------0-------0---3~~~~~~-5~~~~~~-|
B -0---0-------0---0---0---0---0-------0-------0---3~~~~~~-5~~~~~~-|
pm .   .       .   .   .   .   .       .       .

===================================================================

Guitar 1
C#-----------------------------------------------------------------|
G#-----------------------------------------------------------------|
E -----------------------------------------------------------------|
B -0---0-------0---0---0---0---0-------0-------0---3~~~~~~-5~~~~~~-|
F#-0---0-------0---0---0---0---0-------0-------0---3~~~~~~-5~~~~~~-|
B -0---0-------0---0---0---0---0-------0-------0---3~~~~~~-5~~~~~~-|
pm .   .       .       .   .   .       .       .

===================================================================

Guitar 1
C#-----------------------------------------------------------------|
G#-----------------------------------------------------------------|
E -----------------------------------------------------------------|
B -3---3-------3---3~~~~~~-3---3-------2-------2---2~~~~~~-2~~~~~~-|
F#-3---3-------3---3~~~~~~-3---3-------2-------2---2~~~~~~-2~~~~~~-|
B -3---3-------3---3~~~~~~-3---3-------2-------2---2~~~~~~-2~~~~~~-|
pm .   .       .           .   .       .       .

Guitar 2
C#-----------------------------------------------------------------|
G#/11~~~~~-11~~~~~-11~~~~~-11~~~~~-11--10~~~~~-6---6~~~~~~~~~~~~~~-|
E -x-------x-------x-------x-------x---x-------x---x---------------|
B /8~~~~~~-8~~~~~~-8~~~~~~-8~~~~~~-8---7~~~~~~-3---3~~~~~~~~~~~~~~-|
F#-----------------------------------------------------------------|
B -----------------------------------------------------------------|

===================================================================
===================================================================


Guitar Solo

Guitar 1
C#-----------------------------------------------------------------|
G#-----------------------------------------------------------------|
E -----------------------------------------------------------------|
B -0---0-------0---0---0---0---0-------0-------0---3~~~~~~-5~~~~~~-|
F#-0---0-------0---0---0---0---0-------0-------0---3~~~~~~-5~~~~~~-|
B -0---0-------0---0---0---0---0-------0-------0---3~~~~~~-5~~~~~~-|
pm .   .       .       .   .   .       .       .

Guitar 2
C#-----------------------------------------------------------------|
G#---------------------------------13--13--------------------------|
E -10--------------10--10--------------------------10--10----------|
B -----0---0---0-----------0---0-----------0---0-----------0---0---|
F#-----------------------------------------------------------------|
B -----------------------------------------------------------------|
pm     .   .   .           .   .           .   .           .   .

===================================================================

Guitar 1
C#-----------------------------------------------------------------|
G#-----------------------------------------------------------------|
E -----------------------------------------------------------------|
B -0---0-------0---0---0---0---0-------0-------0---3~~~~~~-5~~~~~~-|
F#-0---0-------0---0---0---0---0-------0-------0---3~~~~~~-5~~~~~~-|
B -0---0-------0---0---0---0---0-------0-------0---3~~~~~~-5~~~~~~-|
pm .   .       .   .   .   .   .       .       .

Guitar 2
C#-----------------------------------------------------------------|
G#---------------------------------13------------------------------|
E -14--14----------10------------------------------10--12--12b~r~~-|
B ---------0---0-------0---0---0-------0---0---0-------------------|
F#-----------------------------------------------------------------|
B -----------------------------------------------------------------|
pm         .   .       .   .   .       .   .   .

===================================================================

Guitar 1
C#-----------------------------------------------------------------|
G#-----------------------------------------------------------------|
E -----------------------------------------------------------------|
B -0---0-------0---0---0---0---0-------0-------0---3~~~~~~-5~~~~~~-|
F#-0---0-------0---0---0---0---0-------0-------0---3~~~~~~-5~~~~~~-|
B -0---0-------0---0---0---0---0-------0-------0---3~~~~~~-5~~~~~~-|
pm .   .       .       .   .   .       .       .

Guitar 2
C#-----------------------------------------------------------------|
G#---------------------------------13--13--------------------------|
E -10--------------10--10--------------------------10--10----------|
B -----0---0---0-----------0---0-----------0---0-----------0---0---|
F#-----------------------------------------------------------------|
B -----------------------------------------------------------------|
pm     .   .   .           .   .           .   .           .   .

===================================================================

Guitar 1
C#-----------------------------------------------------------------|
G#-----------------------------------------------------------------|
E -----------------------------------------------------------------|
B -3---3-------3---3~~~~~~-3---3-------2-------2---2~~~~~~-2~~~~~~-|
F#-3---3-------3---3~~~~~~-3---3-------2-------2---2~~~~~~-2~~~~~~-|
B -3---3-------3---3~~~~~~-3---3-------2-------2---2~~~~~~-2~~~~~~-|
pm .   .       .           .   .       .       .

Guitar 2
C#-----------------------------------------------------------------|
G#-----------------------------------------------------------------|
E -14--15--14--12--14h15p14p12-----10------10--12~~~~~~~~~~~~~~~~~-|
B -----------------------------12------12--------------------------|
F#-----------------------------------------------------------------|
B -----------------------------------------------------------------|
pm                             .       .

===================================================================

Guitar 1
C#-----------------------------------------------------------------|
G#-----------------------------------------------------------------|
E -----------------------------------------------------------------|
B -0---0-------0---0---0---0---0-------0-------0---3~~~~~~-5~~~~~~-|
F#-0---0-------0---0---0---0---0-------0-------0---3~~~~~~-5~~~~~~-|
B -0---0-------0---0---0---0---0-------0-------0---3~~~~~~-5~~~~~~-|
pm .   .       .       .   .   .       .       .

Guitar 2
C#-----------------------------------------------------------------|
G#-15--18------15--13----------------------------------------------|
E ---------14----------12--14--12--10--14--12------10--------------|
B ---------------------------------------------10------12----------|
F#---------------------------------------------------------12--14--|
B -----------------------------------------------------------------|
pm         .           .   .   .   .   .   .   .       .   .   .

===================================================================

Guitar 1
C#-----------------------------------------------------------------|
G#-----------------------------------------------------------------|
E -----------------------------------------------------------------|
B -0---0-------0---0---0---0---0-------0-------0---3~~~~~~-5~~~~~~-|
F#-0---0-------0---0---0---0---0-------0-------0---3~~~~~~-5~~~~~~-|
B -0---0-------0---0---0---0---0-------0-------0---3~~~~~~-5~~~~~~-|
pm .   .       .   .   .   .   .       .       .

Guitar 2
C#-----------------------------------------------------------------|
G#-15--18------15--13----------------------------------------------|
E ---------14----------12--14--12--10--14--12------10--------------|
B ---------------------------------------------10------12----------|
F#---------------------------------------------------------12--14--|
B -----------------------------------------------------------------|
pm         .           .   .   .   .   .   .   .       .   .   .

===================================================================

Guitar 1
C#-----------------------------------------------------------------|
G#-----------------------------------------------------------------|
E -----------------------------------------------------------------|
B -0---0-------0---0---0---0---0-------0-------0---3~~~~~~-5~~~~~~-|
F#-0---0-------0---0---0---0---0-------0-------0---3~~~~~~-5~~~~~~-|
B -0---0-------0---0---0---0---0-------0-------0---3~~~~~~-5~~~~~~-|
pm .   .       .       .   .   .       .       .

Guitar 2
C#-----------------------------------------------------------------|
G#-15--18------15--13--------------------------13----------13~~~~~-|
E ---------14----------12--14--13--12--14--13------14--------------|
B -----------------------------------------------------15----------|
F#-----------------------------------------------------------------|
B -----------------------------------------------------------------|
pm         .           .   .   .   .   .   .       .   .

===================================================================

Guitar 1
C#-----------------------------------------------------------------|
G#-----------------------------------------------------------------|
E -----------------------------------------------------------------|
B -3---3-------3---3~~~~~~-3---3-------2-------2---2~~~~~~-2~~~~~~-|
F#-3---3-------3---3~~~~~~-3---3-------2-------2---2~~~~~~-2~~~~~~-|
B -3---3-------3---3~~~~~~-3---3-------2-------2---2~~~~~~-2~~~~~~-|
pm .   .       .           .   .       .       .

Guitar 2
C#-----------------15------17------18-----17h18p17-15--------18-20-|
G#-15--18--15----------15------15------15-------------18-20--------|
E -------------17--------------------------------------------------|
B -----------------------------------------------------------------|
F#-----------------------------------------------------------------|
B -----------------------------------------------------------------|

===================================================================
===================================================================

Bridge 2

Guitar 1
C#-----------------------------------------------------------------|
G#-----------------------------------------------------------------|
E -----------------------------------------------------------------|
B -------------------------------------3---2-------5---3---2-------|
F#-------------------------3---5-------------------------------3---|
B -3h5p3-0~~~~~~~~-0---0-----------0-----------0-------------------|
pm                 .   .           .           .   .   .   .

Guitar 2
C#-21b~~~~~~~~~~~~~~~~~~~~~~~~~~~~~~~~~~~~~~~~~~~~~~~~~~~~~~~~~~~~-
G#-----------------------------------------------------------------|
E -----------------------------------------------------------------|
B -----------------------------------------------------------------|
F#-----------------------------------------------------------------|
B -----------------------------------------------------------------|

===================================================================

Guitar 1
C#-----------------------------------------------------------------|
G#-----------------------------------------------------------------|
E -----------------------------------------------------------------|
B -------------------------------------3---2-----------5~~~~~~~~~~-|
F#-------------------------3---5-------------------3---5~~~~~~~~~~-|
B -3h5p3-0~~~~~~~~-0---0-----------0-----------0-------5~~~~~~~~~~-|
pm                 .   .           .           .

Guitar 2
C#-21b~~~~~~~~~~~~~~~~~~~~~~~~~~~~~^~~~^~~~^~~~^~~~^~~~^~~~\~~~~~~-
G#-----------------------------------------------------------------|
E -----------------------------------------------------------------|
B -----------------------------------------------------------------|
F#-----------------------------------------------------------------|
B -----------------------------------------------------------------|

===================================================================
===================================================================


Interlude

(X2)

Guitar 1
C#-----------------------------------------------------------------|
G#-----------------------------------------------------------------|
E -----------------------------------------------------------------|
B -0~~~~~~~~~~~~~~-0---0---0~~~~~~~~~~-0-------0---0~~~~~~-0---0---|
F#-0~~~~~~~~~~~~~~-0---0---0~~~~~~~~~~-0-------0---0~~~~~~-0---0---|
B -0~~~~~~~~~~~~~~-0---0---0~~~~~~~~~~-0-------0---0~~~~~~-0---0---|
pm                 .   .               .       .           .   .

Guitar 2
C#---------17~~~~~-15~~~~~-----------------17~~~~~-15~~~~~---------|
G#-15~~~~~-----------------15~~~~~~~~~~~~~-----------------15~~~~~-|
E -----------------------------------------------------------------|
B -----------------------------------------------------------------|
F#-----------------------------------------------------------------|
B -----------------------------------------------------------------|

===================================================================

Guitar 1
C#-----------------------------------------------------------------|
G#-----------------------------------------------------------------|
E -----------------------------------------------------------------|
B -8~~~~~~~~~~~~~~-8---8---8~~~~~~~~~~-8-------8---8~~~~~~-8---8---|
F#-8~~~~~~~~~~~~~~-8---8---8~~~~~~~~~~-8-------8---8~~~~~~-8---8---|
B -8~~~~~~~~~~~~~~-8---8---8~~~~~~~~~~-8-------8---8~~~~~~-8---8---|
pm                 .   .               .       .           .   .

Guitar 2
C#---------17~~~~~-15~~~~~-----------------17~~~~~-15~~~~~---------|
G#-15~~~~~-----------------15~~~~~~~~~~~~~-----------------15~~~~~-|
E -----------------------------------------------------------------|
B -----------------------------------------------------------------|
F#-----------------------------------------------------------------|
B -----------------------------------------------------------------|

===================================================================

Guitar 1
C#-----------------------------------------------------------------|
G#-----------------------------------------------------------------|
E -----------------------------------------------------------------|
B -8~~~~~~~~~~~~~~-5---5---5~~~~~~~~~~-5-------5---5~~~~~~-5---5---|
F#-8~~~~~~~~~~~~~~-5---5---5~~~~~~~~~~-5-------5---5~~~~~~-5---5---|
B -5~~~~~~~~~~~~~~-5---5---5~~~~~~~~~~-5-------5---5~~~~~~-5---5---|
pm                 .   .               .       .           .   .

Guitar 2
C#---------17~~~~~-15~~~~~-----------------17~~~~~-15~~~~~---------|
G#-15~~~~~-----------------15~~~~~~~~~~~~~-----------------15~~~~~-|
E -----------------------------------------------------------------|
B -----------------------------------------------------------------|
F#-----------------------------------------------------------------|
B -----------------------------------------------------------------|

===================================================================

Guitar 1
C#-----------------------------------------------------------------|
G#-----------------------------------------------------------------|
E -----------------------------------------------------------------|
B -8~~~~~~~~~~~~~~-8---8---10~~~~~~~~~-10------10--10~~~~~-10--10--|
F#-8~~~~~~~~~~~~~~-8---8---10~~~~~~~~~-10------10--10~~~~~-10--10--|
B -8~~~~~~~~~~~~~~-8---8---10~~~~~~~~~-10------10--10~~~~~-10--10--|
pm                 .   .               .       .           .   .

Guitar 2
C#-----------------13~~~~~-15--13------------------13~~~~~-15~~~~~-|
G#-13~~~~~-15~~~~~-----------------13~~~~~-13--15------------------|
E -----------------------------------------------------------------|
B -----------------------------------------------------------------|
F#-----------------------------------------------------------------|
B -----------------------------------------------------------------|

===================================================================
===================================================================


Chorus

(X2)

Guitar 1
C#-----------------------------------------------------------------|
G#-----------------------------------------------------------------|
E -----------------------------------------------------------------|
B -0~~~~~~~~~~~~~~-0---0---0~~~~~~~~~~-0-------0---0~~~~~~-0---0---|
F#-0~~~~~~~~~~~~~~-0---0---0~~~~~~~~~~-0-------0---0~~~~~~-0---0---|
B -0~~~~~~~~~~~~~~-0---0---0~~~~~~~~~~-0-------0---0~~~~~~-0---0---|
pm                 .   .               .       .           .   .

Guitar 2
C#---------17~~~~~-15~~~~~-----------------17~~~~~-15~~~~~---------|
G#-15~~~~~-----------------15~~~~~~~~~~~~~-----------------15~~~~~-|
E -----------------------------------------------------------------|
B -----------------------------------------------------------------|
F#-----------------------------------------------------------------|
B -----------------------------------------------------------------|

===================================================================

Guitar 1
C#-----------------------------------------------------------------|
G#-----------------------------------------------------------------|
E -----------------------------------------------------------------|
B -8~~~~~~~~~~~~~~-8---8---8~~~~~~~~~~-8-------8---8~~~~~~-8---8---|
F#-8~~~~~~~~~~~~~~-8---8---8~~~~~~~~~~-8-------8---8~~~~~~-8---8---|
B -8~~~~~~~~~~~~~~-8---8---8~~~~~~~~~~-8-------8---8~~~~~~-8---8---|
pm                 .   .               .       .           .   .

Guitar 2
C#---------17~~~~~-15~~~~~-----------------17~~~~~-15~~~~~---------|
G#-15~~~~~-----------------15~~~~~~~~~~~~~-----------------15~~~~~-|
E -----------------------------------------------------------------|
B -----------------------------------------------------------------|
F#-----------------------------------------------------------------|
B -----------------------------------------------------------------|

===================================================================

Guitar 1
C#-----------------------------------------------------------------|
G#-----------------------------------------------------------------|
E -----------------------------------------------------------------|
B -8~~~~~~~~~~~~~~-5---5---5~~~~~~~~~~-5-------5---5~~~~~~-5---5---|
F#-8~~~~~~~~~~~~~~-5---5---5~~~~~~~~~~-5-------5---5~~~~~~-5---5---|
B -5~~~~~~~~~~~~~~-5---5---5~~~~~~~~~~-5-------5---5~~~~~~-5---5---|
pm                 .   .               .       .           .   .

Guitar 2
C#---------17~~~~~-15~~~~~-----------------17~~~~~-15~~~~~---------|
G#-15~~~~~-----------------15~~~~~~~~~~~~~-----------------15~~~~~-|
E -----------------------------------------------------------------|
B -----------------------------------------------------------------|
F#-----------------------------------------------------------------|
B -----------------------------------------------------------------|

===================================================================

Guitar 1 (echo Effect on last Note)
C#-----------------------------------------------------------------|
G#-----------------------------------------------------------------|
E -----------------------------------------------------------------|
B -8~~~~~~~~~~~~~~-8---8---10~~~~~~~~~~~~~~~~~~~~~~~~~~~~~~\~~~~~~-|
F#-8~~~~~~~~~~~~~~-8---8---10~~~~~~~~~~~~~~~~~~~~~~~~~~~~~~\~~~~~~-|
B -8~~~~~~~~~~~~~~-8---8---10~~~~~~~~~~~~~~~~~~~~~~~~~~~~~~\~~~~~~-|
pm                 .   .

Guitar 2 (echo Effect on last 2 Notes)
C#-----------------13~~~~~-15--13------------------13~~~~~-15~~~~~-|
G#-13~~~~~-15~~~~~-----------------13~~~~~-13--15------------------|
E -----------------------------------------------------------------|
B -----------------------------------------------------------------|
F#-----------------------------------------------------------------|
B -----------------------------------------------------------------|

===================================================================
===================================================================
===================================================================

Tab Legend
h  -  hammer-on
p  -  pull-off
/  -  slide up
\  -  slide down
ps/-  pickslide up
ps\-  pickslide down
~  -  let ring
pm.-  palm mute
b  -  bend
r  -  return from bend
*  -  harmonic
x  -  dead note
^  -  Whammy bar
^\ -  Whammy bar (hold down)

There you have it! I hope this tab helped you, and you were able to get it all down. If
you've got any problems, just ask, or check out my cover for visual help. Thanks, oh and
one last thing... ROCK OUT!!!!
Добавлено: 27.04.2012
Другие материалы по этой песне:

Страница создана 29.02.2012
http://primanota.ru/five-finger-death-punch/the-pride-chords.htm
Привет, Гость.
Предлагаем пройти революционный курс по гитаре.
Подарок от PrimaNota.Ru, забирай!