PrimaNota.ru - самый крупный в мире бесплатный архив песенных текстов, аккордов, табулатур и нот


Five Finger Death Punch - Meet The Monster - текст песни, таба, бас-таба, видео

Регистрация Запомнить меня
Войти через:  Facebook Google Twitter Vk Yandex Mail.ru

Five Finger Death Punch - Meet The Monster - текст песни, таба, бас-таба, видео

Печатать
Просмотров: 235
Авторы музыки: Ivan Moody, Jeremy Spencer, Matt Snell, Zoltan Bathory
Авторы текста: Ivan Moody, Jeremy Spencer, Matt Snell, Zoltan Bathory
this isnt 100% correct but its close this is
in drop D tuning i hope u like it :-) comment plz.
           
Guitar 1

e-------------------------------------------->
b-------------------------------------------->
g-------------------------------------------->
d-------------------------------------------->
a---1-1--1-1--1-1--1-1--1-1--1-1--1-1--1-1--->palm
D---1-1--1-1--1-1--1-1--1-1--1-1--1-1--1-1--->muted

e-------------------------------------------->
b-------------------------------------------->
g-------------------------------------------->
d-------------------------------------------->
a----3--4--6--7--9--7h9p7--6--4--6--7-------->
D--0----------------------------------------->

e-------------------------------------------->
b-------------------------------------------->
g-------------------------------------------->
d-------------------------------------------->
a----3--4--6--7--9--7h9p7--6--4-------------->
D-0------------------------------------------>

Guitar 2

e-------------------------------------------->
b-------------------------------------------->
g-------------------------------------------->
d-------------------------------------------->
a---1-1--1-1--1-1--1-1--1-1--1-1--1-1--1-1--->palm
D---1-1--1-1--1-1--1-1--1-1--1-1--1-1--1-1--->muted


     thats all i kno to lazy to do the rest aha.
Добавлено: 02.11.2013
Другие материалы по этой песне:

Страница создана 25.06.2013
http://primanota.ru/five-finger-death-punch/meet-the-monster-chords.htm
Привет, Гость.
Предлагаем пройти революционный курс по гитаре.
Подарок от PrimaNota.Ru, забирай!