PrimaNota.ru - самый крупный в мире бесплатный архив песенных текстов, аккордов, табулатур и нот


Five Finger Death Punch - Im Sin - таба, видео

Регистрация Запомнить меня
Войти через:  Facebook Google Twitter Vk Yandex Mail.ru

Five Finger Death Punch - Im Sin - таба, видео

Печатать
Просмотров: 174
Авторы: Ivan Moody, Jeremy Spencer, Kevin Churko, Zoltan Bathory, Jason Hook

----------------------------------------------------------------------------
                             I.M.Sin
                       Five Finger Death Punch
----------------------------------------------------------------------------

Five Finger Death Punch never takes a year off. Once again, they produce another 
spectacular album. I.M. Sin has to be my favorite song from the album because of the powerful 
chorus, sweet riffs, and very technical guitar solo. Enjoy!

Username: dkm817 (same on X box live)
Youtube Cover: https://www.youtube.com/watch?v=spRLI69gwdg
Email: guitardrums@rockfan.com

Guitar 1 Rhythmic (C G C F A D)
Guitar 2 Lead     (C G C F A D)

NOTE: This was exported off of guitar pro.


Guitar 1

                     PM PM       PM PM
             Q    E  S  S  E  E  S  S  E
D||-------|-------------------------------|
A||-------|-------------------------------|
F||-------|----------------5--------------|
C||-------|--4----4--4--4--5--4--4--4--5--|
G||-------|--4----4--4--4--3--4--4--4--5--|
C||-------|--4----4--4--4-----4--4--4--5--|


  PM PM    PM PM    PM PM                    PM PM PM PM       PM PM
  S  S  E  S  S  E  S  S  E   E   E     Q    S  S  S  S  E  E  S  S  E
-------------------------------------|----------------------------------|
-------------------------------------|----------------------------------|
-------------------------------------|-------------------5--------------|
--4--4--6--4--4--7--4--4--9--10--11--|--4----4--4--4--4--5--4--4--4--5--|
--4--4--6--4--4--7--4--4--9--10--11--|--4----4--4--4--4--3--4--4--4--5--|
--4--4--6--4--4--7--4--4--9--10--11--|--4----4--4--4--4-----4--4--4--5--|


  PM PM    PM PM    PM PM PM PM PM PM PM PM            PM PM       PM PM
  S  S  E  S  S  E  S  S  S  S  S  S  S  S     Q    E  S  S  E  E  S  S  E
--------------------------------------------|-------------------------------|
--------------------------------------------|-------------------------------|
--------------------------------------------|----------------5--------------|
--4--4--6--4--4--7--4--4--2--0--------------|--4----4--4--4--5--4--4--4--5--|
--4--4--6--4--4--7--4--4--------2--3--------|--4----4--4--4--3--4--4--4--5--|
--4--4--6--4--4--7--4--4--------------7--4--|--4----4--4--4-----4--4--4--5--|


  PM PM    PM PM    PM PM                    PM PM PM PM       PM PM
  S  S  E  S  S  E  S  S  E   E   E     Q    S  S  S  S  E  E  S  S  E
-------------------------------------|----------------------------------|
-------------------------------------|----------------------------------|
-------------------------------------|-------------------5--------------|
--4--4--6--4--4--7--4--4--9--10--11--|--4----4--4--4--4--5--4--4--4--5--|
--4--4--6--4--4--7--4--4--9--10--11--|--4----4--4--4--4--3--4--4--4--5--|
--4--4--6--4--4--7--4--4--9--10--11--|--4----4--4--4--4-----4--4--4--5--|


  PM PM    PM PM    PM PM PM PM PM PM PM PM       PM          PM PM
  S  S  E  S  S  E  S  S  S  S  S  S  S  S     E  E  E  E  E  E  E  E
--------------------------------------------|--------------------------|
--------------------------------------------|--------------------------|
--------------------------------------------|--------5-----------------|
--4--4--6--4--4--7--4--4--2--0--------------|--4--4--5--4--7--4--4--4--|
--4--4--6--4--4--7--4--4--------2--3--------|--4--4--3--4--7--4--4--4--|
--4--4--6--4--4--7--4--4--------------7--4--|--4--4-----4--7--4--4--4--|


              PM PM PM PM PM PM PM PM       PM          PM PM
  E  E  E  E  S  S  S  S  S  S  S  S     E  E  E  E  E  E  E  E
--------------------------------------|--------------------------|
--------------------------------------|--------------------------|
--------5-----------------------------|--------5-----------------|
--L--4--5--4--2--0--------------------|--4--4--5--4--7--4--4--4--|
--L--4--3--4--------2--3--------------|--4--4--3--4--7--4--4--4--|
--L--4-----4--------------7--4--4--4--|--4--4-----4--7--4--4--4--|


     PM PM PM PM PM PM PM PM PM PM PM PM PM PM       PM          PM PM
  E  S  S  S  S  S  S  S  S  S  S  S  S  S  S     E  E  E  E  E  E  E  E
-----------------------------------------------|--------------------------|
-----------------------------------------------|--------------------------|
-----------------------------------------------|--------5-----------------|
--L--------------------------------------------|--4--4--5--4--7--4--4--4--|
--L--6--6--6--6--6--6--6--6--6--6--6--6--6--6--|--4--4--3--4--7--4--4--4--|
--L--------------------------------------------|--4--4-----4--7--4--4--4--|


              PM PM PM PM PM PM PM PM       PM          PM PM
  E  E  E  E  S  S  S  S  S  S  S  S     E  E  E  E  E  E  E  E
--------------------------------------|--------------------------|
--------------------------------------|--------------------------|
--------5-----------------------------|--------5-----------------|
--L--4--5--4--2--0--------------------|--4--4--5--4--7--4--4--4--|
--L--4--3--4--------2--3--------------|--4--4--3--4--7--4--4--4--|
--L--4-----4--------------7--4--4--4--|--4--4-----4--7--4--4--4--|


     PM PM PM PM PM PM PM PM PM PM PM PM PM PM
  E  S  S  S  S  S  S  S  S  S  S  S  S  S  S
-----------------------------------------------|
-----------------------------------------------|
-----------------------------------------------|
--L--------------------------------------------|
--L--6--6--6--6--6--6--6--6--6--6--6--6--6--6--|
--L--------------------------------------------|


     PM PM PM PM    PM PM PM PM       PM PM PM PM PM PM
  E  S  E  S  E  E  S  E  S  E     E  S  S  S  S  S  S  E  S S Q
--------------------------------|------------------------------------|
--------------------------------|------------------------------------|
--------------------------------|------------------------------------|
-----------------2--------------|-----------------------2------------|
--------------------------------|------------------------------------|
--2--2--2--2--2-----2--2--2--2--|-----2--2--2--2--2--2-----2-2-5b----|


     PM PM PM PM    PM PM PM PM       PM PM PM PM PM PM PM PM PM PM
  E  S  E  S  E  E  S  E  S  E     E  S  S  S  S  S  S  S  S  S  S  S E  S
--------------------------------|------------------------------------------|
--------------------------------|------------------------------------------|
--------------------------------|------------------------------------------|
-----------------2--------------|-----------------------------------2-0--L-|
--------------------------------|-----------------------------------2-0--L-|
--2--2--2--2--2-----2--2--2--2--|-----2--2--2--2--2--2--7--5--4--2--2-0--L-|


     PM PM PM PM    PM PM PM PM       PM PM PM PM PM PM
  E  S  E  S  E  E  S  E  S  E     E  S  S  S  S  S  S  E  S S Q
--------------------------------|------------------------------------|
--------------------------------|------------------------------------|
--------------------------------|------------------------------------|
-----------------2--------------|-----------------------2------------|
--------------------------------|------------------------------------|
--2--2--2--2--2-----2--2--2--2--|-----2--2--2--2--2--2-----2-2-5b----|


     PM PM PM PM    PM PM PM PM       PM PM PM PM PM PM PM PM PM PM
  E  S  E  S  E  E  S  E  S  E     E  S  S  S  S  S  S  S  S  S  S  S E  S
--------------------------------|------------------------------------------|
--------------------------------|------------------------------------------|
--------------------------------|------------------------------------------|
-----------------2--------------|-----------------------------------2-0--L-|
--------------------------------|-----------------------------------2-0--L-|
--2--2--2--2--2-----2--2--2--2--|-----2--2--2--2--2--2--7--5--4--2--2-0--L-|


                PM                     PM                     PM
  H        Q    E  E     H        Q    E  E     H        Q    E  E
----------------------|----------------------|----------------------|
----------------------|----------------------|----------------------|
----------------------|----------------------|----------------------|
--4--------L----0--7--|--L--------L----0--2--|--L--------L----0--0--|
--4--------L----0--7--|--L--------L----0--2--|--L--------L----0--0--|
--4--------L----0--7--|--L--------L----0--2--|--L--------L----0--0--|


       PM         PM PM                  PM                     PM
  Q    E  Q    E  E  E     H        Q    E  E     H        Q    E  E
------------------------|----------------------|----------------------|
------------------------|----------------------|----------------------|
------------------------|----------------------|----------------------|
--L----0--2----L--0--0--|--4--------L----0--7--|--L--------L----0--2--|
--L----0--2----L--0--0--|--4--------L----0--7--|--L--------L----0--2--|
--L----0--2----L--0--0--|--4--------L----0--7--|--L--------L----0--2--|


                PM            PM         PM PM                  PM
  H        Q    E  E     Q    E  Q    E  E  E     H        Q    E  E
----------------------|------------------------|----------------------|
----------------------|------------------------|----------------------|
----------------------|------------------------|----------------------|
--L--------L----0--0--|--L----0--2----L--0--0--|--4--------L----0--7--|
--L--------L----0--0--|--L----0--2----L--0--0--|--4--------L----0--7--|
--L--------L----0--0--|--L----0--2----L--0--0--|--4--------L----0--7--|


                PM                     PM            PM         PM PM
  H        Q    E  E     H        Q    E  E     Q    E  Q    E  E  E
----------------------|----------------------|------------------------|
----------------------|----------------------|------------------------|
----------------------|----------------------|------------------------|
--L--------L----0--2--|--L--------L----0--0--|--L----0--2----L--0--0--|
--L--------L----0--2--|--L--------L----0--0--|--L----0--2----L--0--0--|
--L--------L----0--2--|--L--------L----0--0--|--L----0--2----L--0--0--|


                PM                     PM                     PM
  H        Q    E  E     H        Q    E  E     H        Q    E  E
----------------------|----------------------|----------------------|
----------------------|----------------------|----------------------|
----------------------|----------------------|----------------------|
--4--------L----0--7--|--L--------L----0--2--|--L--------L----0--0--|
--4--------L----0--7--|--L--------L----0--2--|--L--------L----0--0--|
--4--------L----0--7--|--L--------L----0--2--|--L--------L----0--0--|


       PM         PM PM            PM PM       PM PM
  Q    E  Q    E  E  E     Q    E  S  S  E  E  S  S  E
------------------------|-------------------------------|
------------------------|-------------------------------|
------------------------|----------------5--------------|
--L----0--2----L--0--0--|--4----4--4--4--5--4--4--4--5--|
--L----0--2----L--0--0--|--4----4--4--4--3--4--4--4--5--|
--L----0--2----L--0--0--|--4----4--4--4-----4--4--4--5--|


  PM PM    PM PM    PM PM                    PM PM PM PM       PM PM
  S  S  E  S  S  E  S  S  E   E   E     Q    S  S  S  S  E  E  S  S  E
-------------------------------------|----------------------------------|
-------------------------------------|----------------------------------|
-------------------------------------|-------------------5--------------|
--4--4--6--4--4--7--4--4--9--10--11--|--4----4--4--4--4--5--4--4--4--5--|
--4--4--6--4--4--7--4--4--9--10--11--|--4----4--4--4--4--3--4--4--4--5--|
--4--4--6--4--4--7--4--4--9--10--11--|--4----4--4--4--4-----4--4--4--5--|


  PM PM    PM PM    PM PM PM PM PM PM PM PM            PM PM       PM PM
  S  S  E  S  S  E  S  S  S  S  S  S  S  S     Q    E  S  S  E  E  S  S  E
--------------------------------------------|-------------------------------|
--------------------------------------------|-------------------------------|
--------------------------------------------|----------------5--------------|
--4--4--6--4--4--7--4--4--2--0--------------|--4----4--4--4--5--4--4--4--5--|
--4--4--6--4--4--7--4--4--------2--3--------|--4----4--4--4--3--4--4--4--5--|
--4--4--6--4--4--7--4--4--------------7--4--|--4----4--4--4-----4--4--4--5--|


  PM PM    PM PM    PM PM                    PM PM PM PM       PM PM
  S  S  E  S  S  E  S  S  E   E   E     Q    S  S  S  S  E  E  S  S  E
-------------------------------------|----------------------------------|
-------------------------------------|----------------------------------|
-------------------------------------|-------------------5--------------|
--4--4--6--4--4--7--4--4--9--10--11--|--4----4--4--4--4--5--4--4--4--5--|
--4--4--6--4--4--7--4--4--9--10--11--|--4----4--4--4--4--3--4--4--4--5--|
--4--4--6--4--4--7--4--4--9--10--11--|--4----4--4--4--4-----4--4--4--5--|


  PM PM    PM PM    PM PM PM PM PM PM PM PM       PM          PM PM
  S  S  E  S  S  E  S  S  S  S  S  S  S  S     E  E  E  E  E  E  E  E
--------------------------------------------|--------------------------|
--------------------------------------------|--------------------------|
--------------------------------------------|--------5-----------------|
--4--4--6--4--4--7--4--4--2--0--------------|--4--4--5--4--7--4--4--4--|
--4--4--6--4--4--7--4--4--------2--3--------|--4--4--3--4--7--4--4--4--|
--4--4--6--4--4--7--4--4--------------7--4--|--4--4-----4--7--4--4--4--|


              PM PM PM PM PM PM PM PM       PM          PM PM
  E  E  E  E  S  S  S  S  S  S  S  S     E  E  E  E  E  E  E  E
--------------------------------------|--------------------------|
--------------------------------------|--------------------------|
--------5-----------------------------|--------5-----------------|
--L--4--5--4--2--0--------------------|--4--4--5--4--7--4--4--4--|
--L--4--3--4--------2--3--------------|--4--4--3--4--7--4--4--4--|
--L--4-----4--------------7--4--4--4--|--4--4-----4--7--4--4--4--|


     PM PM PM PM PM PM PM PM PM PM PM PM PM PM       PM          PM PM
  E  S  S  S  S  S  S  S  S  S  S  S  S  S  S     E  E  E  E  E  E  E  E
-----------------------------------------------|--------------------------|
-----------------------------------------------|--------------------------|
-----------------------------------------------|--------5-----------------|
--L--------------------------------------------|--4--4--5--4--7--4--4--4--|
--L--6--6--6--6--6--6--6--6--6--6--6--6--6--6--|--4--4--3--4--7--4--4--4--|
--L--------------------------------------------|--4--4-----4--7--4--4--4--|


              PM PM PM PM PM PM PM PM       PM          PM PM
  E  E  E  E  S  S  S  S  S  S  S  S     E  E  E  E  E  E  E  E
--------------------------------------|--------------------------|
--------------------------------------|--------------------------|
--------5-----------------------------|--------5-----------------|
--L--4--5--4--2--0--------------------|--4--4--5--4--7--4--4--4--|
--L--4--3--4--------2--3--------------|--4--4--3--4--7--4--4--4--|
--L--4-----4--------------7--4--4--4--|--4--4-----4--7--4--4--4--|


     PM PM PM PM PM PM PM PM PM PM PM PM PM PM
  E  S  S  S  S  S  S  S  S  S  S  S  S  S  S
-----------------------------------------------|
-----------------------------------------------|
-----------------------------------------------|
--L--------------------------------------------|
--L--6--6--6--6--6--6--6--6--6--6--6--6--6--6--|
--L--------------------------------------------|


     PM PM PM PM    PM PM PM PM       PM PM PM PM PM PM
  E  S  E  S  E  E  S  E  S  E     E  S  S  S  S  S  S  E  S S Q
--------------------------------|------------------------------------|
--------------------------------|------------------------------------|
--------------------------------|------------------------------------|
-----------------2--------------|-----------------------2------------|
--------------------------------|------------------------------------|
--2--2--2--2--2-----2--2--2--2--|-----2--2--2--2--2--2-----2-2-5b----|


     PM PM PM PM    PM PM PM PM       PM PM PM PM PM PM PM PM PM PM
  E  S  E  S  E  E  S  E  S  E     E  S  S  S  S  S  S  S  S  S  S  S E  S
--------------------------------|------------------------------------------|
--------------------------------|------------------------------------------|
--------------------------------|------------------------------------------|
-----------------2--------------|-----------------------------------2-0--L-|
--------------------------------|-----------------------------------2-0--L-|
--2--2--2--2--2-----2--2--2--2--|-----2--2--2--2--2--2--7--5--4--2--2-0--L-|


     PM PM PM PM    PM PM PM PM       PM PM PM PM PM PM
  E  S  E  S  E  E  S  E  S  E     E  S  S  S  S  S  S  E  S S Q
--------------------------------|------------------------------------|
--------------------------------|------------------------------------|
--------------------------------|------------------------------------|
-----------------2--------------|-----------------------2------------|
--------------------------------|------------------------------------|
--2--2--2--2--2-----2--2--2--2--|-----2--2--2--2--2--2-----2-2-5b----|


     PM PM PM PM    PM PM PM PM       PM PM PM PM PM PM PM PM PM PM
  E  S  E  S  E  E  S  E  S  E     E  S  S  S  S  S  S  S  S  S  S  S E  S
--------------------------------|------------------------------------------|
--------------------------------|------------------------------------------|
--------------------------------|------------------------------------------|
-----------------2--------------|-----------------------------------2-0--L-|
--------------------------------|-----------------------------------2-0--L-|
--2--2--2--2--2-----2--2--2--2--|-----2--2--2--2--2--2--7--5--4--2--2-0--L-|


                PM                     PM                     PM
  H        Q    E  E     H        Q    E  E     H        Q    E  E
----------------------|----------------------|----------------------|
----------------------|----------------------|----------------------|
----------------------|----------------------|----------------------|
--4--------L----0--7--|--L--------L----0--2--|--L--------L----0--0--|
--4--------L----0--7--|--L--------L----0--2--|--L--------L----0--0--|
--4--------L----0--7--|--L--------L----0--2--|--L--------L----0--0--|


       PM         PM PM                  PM                     PM
  Q    E  Q    E  E  E     H        Q    E  E     H        Q    E  E
------------------------|----------------------|----------------------|
------------------------|----------------------|----------------------|
------------------------|----------------------|----------------------|
--L----0--2----L--0--0--|--4--------L----0--7--|--L--------L----0--2--|
--L----0--2----L--0--0--|--4--------L----0--7--|--L--------L----0--2--|
--L----0--2----L--0--0--|--4--------L----0--7--|--L--------L----0--2--|


                PM            PM      PM PM PM                  PM
  H        Q    E  E     Q    E  Q    E  E  E     H        Q    E  E
----------------------|------------------------|----------------------|
----------------------|------------------------|----------------------|
----------------------|------------------------|----------------------|
--L--------L----0--0--|--L----0--0----0--0--0--|--4--------L----0--7--|
--L--------L----0--0--|--L----0--0----0--0--0--|--4--------L----0--7--|
--L--------L----0--0--|--L----0--0----0--0--0--|--4--------L----0--7--|


                PM                     PM            PM         PM PM
  H        Q    E  E     H        Q    E  E     Q    E  Q    E  E  E
----------------------|----------------------|------------------------|
----------------------|----------------------|------------------------|
----------------------|----------------------|------------------------|
--L--------L----0--2--|--L--------L----0--0--|--L----0--2----L--0--0--|
--L--------L----0--2--|--L--------L----0--0--|--L----0--2----L--0--0--|
--L--------L----0--2--|--L--------L----0--0--|--L----0--2----L--0--0--|


                PM                     PM                     PM
  H        Q    E  E     H        Q    E  E     H        Q    E  E
----------------------|----------------------|----------------------|
----------------------|----------------------|----------------------|
----------------------|----------------------|----------------------|
--4--------L----0--7--|--L--------L----0--2--|--L--------L----0--0--|
--4--------L----0--7--|--L--------L----0--2--|--L--------L----0--0--|
--4--------L----0--7--|--L--------L----0--2--|--L--------L----0--0--|


       PM      PM PM PM    PM PM PM PM PM PM PM PM    PM PM PM PM
  Q    E  Q    E  E  E     S  S  S  S  E  E  S  S  E  S  S  S  S
------------------------|-----------------------------------------|
------------------------|-----------------------------------------|
------------------------|-----------------------------------------|
--L----0--0----0--0--0--|-----------------------------------------|
--L----0--0----0--0--0--|-----------------------------------------|
--L----0--0----0--0--0--|--0--0--0--0--0--0--0--0-----0--0--0--0--|


  PM PM PM PM PM PM PM PM    PM PM PM PM
  S  S  S  S  E  E  S  S  E  S  S  S  S
-----------------------------------------|
-----------------------------------------|
-----------------------------------------|
-----------------------------------------|
-----------------------------------------|
--0--0--0--0--0--0--0--0-----0--0--0--0--|


  PM PM PM PM PM PM PM PM    PM PM PM PM
  S  S  S  S  E  E  S  S  E  S  S  S  S
-----------------------------------------|
-----------------------------------------|
-----------------------------------------|
-----------------------------------------|
-----------------------------------------|
--0--0--0--0--0--0--0--0-----0--0--0--0--|


  PM PM PM PM PM PM PM PM PM PM PM PM PM PM
  S  S  S  S  E  E  S  S  S  S  S  S  S  S
--------------------------------------------|
--------------------------------------------|
--------------------------------------------|
--------------------------------------------|
--------------------------------------------|
--0--0--0--0--0--0--0--0--0--0--0--0--0--0--|


  PM PM PM PM PM PM PM PM    PM PM PM PM
  S  S  S  S  E  E  S  S  E  S  S  S  S
-----------------------------------------|
-----------------------------------------|
-----------------------------------------|
-----------------------------------------|
-----------------------------------------|
--0--0--0--0--0--0--0--0-----0--0--0--0--|


  PM PM PM PM PM PM PM PM    PM PM PM PM
  S  S  S  S  E  E  S  S  E  S  S  S  S
-----------------------------------------|
-----------------------------------------|
-----------------------------------------|
-----------------------------------------|
-----------------------------------------|
--0--0--0--0--0--0--0--0-----0--0--0--0--|


  PM PM PM PM PM PM PM PM    PM PM PM PM    PM PM PM PM PM PM PM PM
  S  S  S  S  E  E  S  S  E  S  S  S  S     S  S  S  S  E  E  S  S  E  E  E
-----------------------------------------|-----------------------------------|
-----------------------------------------|-----------------------------------|
-----------------------------------------|-----------------------------------|
-----------------------------------------|-----------------------------------|
-----------------------------------------|-----------------------------------|
--0--0--0--0--0--0--0--0-----0--0--0--0--|--0--0--0--0--0--0--0--0-----------|


  PM PM PM PM PM PM PM PM    PM PM PM PM
  S  S  S  S  E  E  S  S  E  S  S  S  S
-----------------------------------------|
-----------------------------------------|
-----------------------------------------|
-----------------------------------------|
-----------------------------------------|
--0--0--0--0--0--0--0--0-----0--0--0--0--|


  PM PM PM PM PM PM PM PM    PM PM PM PM
  S  S  S  S  E  E  S  S  E  S  S  S  S
-----------------------------------------|
-----------------------------------------|
-----------------------------------------|
-----------------------------------------|
-----------------------------------------|
--0--0--0--0--0--0--0--0-----0--0--0--0--|


  PM PM PM PM PM PM PM PM    PM PM PM PM
  S  S  S  S  E  E  S  S  E  S  S  S  S
-----------------------------------------|
-----------------------------------------|
-----------------------------------------|
-----------------------------------------|
-----------------------------------------|
--0--0--0--0--0--0--0--0-----0--0--0--0--|


  PM PM PM PM PM PM PM PM PM PM PM PM PM PM
  S  S  S  S  E  E  S  S  S  S  S  S  S  S
--------------------------------------------|
--------------------------------------------|
--------------------------------------------|
--------------------------------------------|
--------------------------------------------|
--0--0--0--0--0--0--0--0--0--0--0--0--0--0--|


  PM PM PM PM PM PM PM PM    PM PM PM PM
  S  S  S  S  E  E  S  S  E  S  S  S  S
-----------------------------------------|
-----------------------------------------|
-----------------------------------------|
-----------------------------------------|
-----------------------------------------|
--0--0--0--0--0--0--0--0-----0--0--0--0--|


  PM PM PM PM PM PM PM PM    PM PM PM PM
  S  S  S  S  E  E  S  S  E  S  S  S  S
-----------------------------------------|
-----------------------------------------|
-----------------------------------------|
-----------------------------------------|
-----------------------------------------|
--0--0--0--0--0--0--0--0-----0--0--0--0--|


  PM PM PM PM PM PM PM PM    PM PM PM PM
  S  S  S  S  E  E  S  S  E  S  S  S  S
-----------------------------------------|
-----------------------------------------|
-----------------------------------------|
-----------------------------------------|
-----------------------------------------|
--0--0--0--0--0--0--0--0-----0--0--0--0--|


  PM PM PM PM PM PM PM PM PM PM PM PM PM PM
  S  S  S  S  E  E  S  S  S  S  S  S  S  S
--------------------------------------------|
--------------------------------------------|
--------------------------------------------|
--------------------------------------------|
--------------------------------------------|
--0--0--0--0--0--0--0--0--0--0--0--0--0--0--|


  PM PM PM PM PM PM PM PM    PM PM PM PM
  S  S  S  S  E  E  S  S  E  S  S  S  S
-----------------------------------------|
-----------------------------------------|
-----------------------------------------|
-----------------------------------------|
-----------------------------------------|
--0--0--0--0--0--0--0--0-----0--0--0--0--|


  PM PM PM PM PM PM PM PM    PM PM PM PM
  S  S  S  S  E  E  S  S  E  S  S  S  S
-----------------------------------------|
-----------------------------------------|
-----------------------------------------|
-----------------------------------------|
-----------------------------------------|
--0--0--0--0--0--0--0--0-----0--0--0--0--|


  PM PM PM PM PM PM PM PM    PM PM PM PM
  S  S  S  S  E  E  S  S  E  S  S  S  S
-----------------------------------------|
-----------------------------------------|
-----------------------------------------|
-----------------------------------------|
-----------------------------------------|
--0--0--0--0--0--0--0--0-----0--0--0--0--|


  PM PM PM PM PM PM PM PM PM PM PM PM PM PM                  PM
  S  S  S  S  E  E  S  S  S  S  S  S  S  S     H        Q    E  E
--------------------------------------------|----------------------|
--------------------------------------------|----------------------|
--------------------------------------------|----------------------|
--------------------------------------------|--4--------L----0--7--|
--------------------------------------------|--4--------L----0--7--|
--0--0--0--0--0--0--0--0--0--0--0--0--0--0--|--4--------L----0--7--|


                PM                     PM            PM         PM PM
  H        Q    E  E     H        Q    E  E     Q    E  Q    E  E  E
----------------------|----------------------|------------------------|
----------------------|----------------------|------------------------|
----------------------|----------------------|------------------------|
--L--------L----0--2--|--L--------L----0--0--|--L----0--2----L--0--0--|
--L--------L----0--2--|--L--------L----0--0--|--L----0--2----L--0--0--|
--L--------L----0--2--|--L--------L----0--0--|--L----0--2----L--0--0--|


                PM                     PM                     PM
  H        Q    E  E     H        Q    E  E     H        Q    E  E
----------------------|----------------------|----------------------|
----------------------|----------------------|----------------------|
----------------------|----------------------|----------------------|
--4--------L----0--7--|--L--------L----0--2--|--L--------L----0--0--|
--4--------L----0--7--|--L--------L----0--2--|--L--------L----0--0--|
--4--------L----0--7--|--L--------L----0--2--|--L--------L----0--0--|


       PM      PM PM PM                  PM                     PM
  Q    E  Q    E  E  E     H        Q    E  E     H        Q    E  E
------------------------|----------------------|----------------------|
------------------------|----------------------|----------------------|
------------------------|----------------------|----------------------|
--L----0--0----0--0--0--|--4--------L----0--7--|--L--------L----0--2--|
--L----0--0----0--0--0--|--4--------L----0--7--|--L--------L----0--2--|
--L----0--0----0--0--0--|--4--------L----0--7--|--L--------L----0--2--|


                PM            PM         PM PM                  PM
  H        Q    E  E     Q    E  Q    E  E  E     H        Q    E  E
----------------------|------------------------|----------------------|
----------------------|------------------------|----------------------|
----------------------|------------------------|----------------------|
--L--------L----0--0--|--L----0--2----L--0--0--|--4--------L----0--7--|
--L--------L----0--0--|--L----0--2----L--0--0--|--4--------L----0--7--|
--L--------L----0--0--|--L----0--2----L--0--0--|--4--------L----0--7--|


                PM                     PM            PM      PM PM PM
  H        Q    E  E     H        Q    E  E     Q    E  Q    E  E  E
----------------------|----------------------|------------------------|
----------------------|----------------------|------------------------|
----------------------|----------------------|------------------------|
--L--------L----0--2--|--L--------L----0--0--|--L----0--0----0--0--0--|
--L--------L----0--2--|--L--------L----0--0--|--L----0--0----0--0--0--|
--L--------L----0--2--|--L--------L----0--0--|--L----0--0----0--0--0--|


  PM PM    PM PM    PM PM                    PM PM PM PM       PM PM
  S  S  E  S  S  E  S  S  E   E   E     Q    S  S  S  S  E  E  S  S  E
-------------------------------------|----------------------------------|
-------------------------------------|----------------------------------|
-------------------------------------|-------------------5--------------|
--4--4--6--4--4--7--4--4--9--10--11--|--4----4--4--4--4--5--4--4--4--5--|
--4--4--6--4--4--7--4--4--9--10--11--|--4----4--4--4--4--3--4--4--4--5--|
--4--4--6--4--4--7--4--4--9--10--11--|--4----4--4--4--4-----4--4--4--5--|


  PM PM    PM PM    PM PM PM PM PM PM PM PM            PM PM       PM PM
  S  S  E  S  S  E  S  S  S  S  S  S  S  S     Q    E  S  S  E  E  S  S  E
--------------------------------------------|-------------------------------|
--------------------------------------------|-------------------------------|
--------------------------------------------|----------------5--------------|
--4--4--6--4--4--7--4--4--2--0--------------|--4----4--4--4--5--4--4--4--5--|
--4--4--6--4--4--7--4--4--------2--3--------|--4----4--4--4--3--4--4--4--5--|
--4--4--6--4--4--7--4--4--------------7--4--|--4----4--4--4-----4--4--4--5--|


  PM PM    PM PM    PM PM                    PM PM PM PM       PM PM
  S  S  E  S  S  E  S  S  E   E   E     Q    S  S  S  S  E  E  S  S  E
-------------------------------------|----------------------------------|
-------------------------------------|----------------------------------|
-------------------------------------|-------------------5--------------|
--4--4--6--4--4--7--4--4--9--10--11--|--4----4--4--4--4--5--4--4--4--5--|
--4--4--6--4--4--7--4--4--9--10--11--|--4----4--4--4--4--3--4--4--4--5--|
--4--4--6--4--4--7--4--4--9--10--11--|--4----4--4--4--4-----4--4--4--5--|


  PM PM    PM PM      PM PM
  S  S  E  S  S  Q    E  E  E     W
-------------------------------|-------------------||
-------------------------------|-------------------||
-------------------------------|-------------------||
--4--4--6--4--4--7----2--1--0--|-------------------||
--4--4--6--4--4--7----0--0--0--|-------------------||
--4--4--6--4--4--7----0--0--0--|-------------------||


Guitar 2

                     PM PM       PM PM
             Q    E  S  S  E  E  S  S  E
D||-------|-------------------------------|
A||-------|-------------------------------|
F||-------|----------------5--------------|
C||-------|--4----4--4--4--5--4--4--4--5--|
G||-------|--4----4--4--4--3--4--4--4--5--|
C||-------|--4----4--4--4-----4--4--4--5--|


  PM PM    PM PM    PM PM                    PM PM PM PM       PM PM
  S  S  E  S  S  E  S  S  E   E   E     Q    S  S  S  S  E  E  S  S  E
-------------------------------------|----------------------------------|
-------------------------------------|----------------------------------|
-------------------------------------|-------------------5--------------|
--4--4--6--4--4--7--4--4--9--10--11--|--4----4--4--4--4--5--4--4--4--5--|
--4--4--6--4--4--7--4--4--9--10--11--|--4----4--4--4--4--3--4--4--4--5--|
--4--4--6--4--4--7--4--4--9--10--11--|--4----4--4--4--4-----4--4--4--5--|


  PM PM    PM PM    PM PM PM PM PM PM PM PM            PM PM       PM PM
  S  S  E  S  S  E  S  S  S  S  S  S  S  S     Q    E  S  S  E  E  S  S  E
--------------------------------------------|-------------------------------|
--------------------------------------------|-------------------------------|
--------------------------------------------|----------------5--------------|
--4--4--6--4--4--7--4--4--2--0--------------|--4----4--4--4--5--4--4--4--5--|
--4--4--6--4--4--7--4--4--------2--3--------|--4----4--4--4--3--4--4--4--5--|
--4--4--6--4--4--7--4--4--------------7--4--|--4----4--4--4-----4--4--4--5--|


  PM PM    PM PM    PM PM                    PM PM PM PM       PM PM
  S  S  E  S  S  E  S  S  E   E   E     Q    S  S  S  S  E  E  S  S  E
-------------------------------------|----------------------------------|
-------------------------------------|----------------------------------|
-------------------------------------|-------------------5--------------|
--4--4--6--4--4--7--4--4--9--10--11--|--4----4--4--4--4--5--4--4--4--5--|
--4--4--6--4--4--7--4--4--9--10--11--|--4----4--4--4--4--3--4--4--4--5--|
--4--4--6--4--4--7--4--4--9--10--11--|--4----4--4--4--4-----4--4--4--5--|


  PM PM    PM PM    PM PM PM PM PM PM PM PM       PM          PM PM
  S  S  E  S  S  E  S  S  S  S  S  S  S  S     E  E  E  E  E  E  E  E
--------------------------------------------|--------------------------|
--------------------------------------------|--------------------------|
--------------------------------------------|--------5-----------------|
--4--4--6--4--4--7--4--4--2--0--------------|--4--4--5--4--7--4--4--4--|
--4--4--6--4--4--7--4--4--------2--3--------|--4--4--3--4--7--4--4--4--|
--4--4--6--4--4--7--4--4--------------7--4--|--4--4-----4--7--4--4--4--|


              PM PM PM PM PM PM PM PM       PM          PM PM
  E  E  E  E  S  S  S  S  S  S  S  S     E  E  E  E  E  E  E  E
--------------------------------------|--------------------------|
--------------------------------------|--------------------------|
--------5-----------------------------|--------5-----------------|
--L--4--5--4--2--0--------------------|--4--4--5--4--7--4--4--4--|
--L--4--3--4--------2--3--------------|--4--4--3--4--7--4--4--4--|
--L--4-----4--------------7--4--4--4--|--4--4-----4--7--4--4--4--|


     PM PM PM PM PM PM PM PM PM PM PM PM PM PM       PM          PM PM
  E  S  S  S  S  S  S  S  S  S  S  S  S  S  S     E  E  E  E  E  E  E  E
-----------------------------------------------|--------------------------|
-----------------------------------------------|--------------------------|
-----------------------------------------------|--------5-----------------|
--L--------------------------------------------|--4--4--5--4--7--4--4--4--|
--L--6--6--6--6--6--6--6--6--6--6--6--6--6--6--|--4--4--3--4--7--4--4--4--|
--L--------------------------------------------|--4--4-----4--7--4--4--4--|


              PM PM PM PM PM PM PM PM       PM          PM PM
  E  E  E  E  S  S  S  S  S  S  S  S     E  E  E  E  E  E  E  E
--------------------------------------|--------------------------|
--------------------------------------|--------------------------|
--------5-----------------------------|--------5-----------------|
--L--4--5--4--2--0--------------------|--4--4--5--4--7--4--4--4--|
--L--4--3--4--------2--3--------------|--4--4--3--4--7--4--4--4--|
--L--4-----4--------------7--4--4--4--|--4--4-----4--7--4--4--4--|


     PM PM PM PM PM PM PM PM PM PM PM PM PM PM
  E  S  S  S  S  S  S  S  S  S  S  S  S  S  S
-----------------------------------------------|
-----------------------------------------------|
-----------------------------------------------|
--L--------------------------------------------|
--L--6--6--6--6--6--6--6--6--6--6--6--6--6--6--|
--L--------------------------------------------|


     PM PM PM PM    PM PM PM PM       PM PM PM PM PM PM
  E  S  E  S  E  E  S  E  S  E     E  S  S  S  S  S  S  E  S S Q
--------------------------------|------------------------------------|
--------------------------------|------------------------------------|
--------------------------------|------------------------------------|
-----------------2--------------|-----------------------2------------|
--------------------------------|------------------------------------|
--2--2--2--2--2-----2--2--2--2--|-----2--2--2--2--2--2-----2-2-5b----|


     PM PM PM PM    PM PM PM PM       PM PM PM PM PM PM PM PM PM PM
  E  S  E  S  E  E  S  E  S  E     E  S  S  S  S  S  S  S  S  S  S  S E  S
--------------------------------|------------------------------------------|
--------------------------------|------------------------------------------|
--------------------------------|------------------------------------------|
-----------------2--------------|-----------------------------------2-0--L-|
--------------------------------|-----------------------------------2-0--L-|
--2--2--2--2--2-----2--2--2--2--|-----2--2--2--2--2--2--7--5--4--2--2-0--L-|


     PM PM PM PM    PM PM PM PM       PM PM PM PM PM PM
  E  S  E  S  E  E  S  E  S  E     E  S  S  S  S  S  S  E  S S Q
--------------------------------|------------------------------------|
--------------------------------|------------------------------------|
--------------------------------|------------------------------------|
-----------------2--------------|-----------------------2------------|
--------------------------------|------------------------------------|
--2--2--2--2--2-----2--2--2--2--|-----2--2--2--2--2--2-----2-2-5b----|


     PM PM PM PM    PM PM PM PM       PM PM PM PM PM PM PM PM PM PM
  E  S  E  S  E  E  S  E  S  E     E  S  S  S  S  S  S  S  S  S  S  S E  S
--------------------------------|------------------------------------------|
--------------------------------|------------------------------------------|
--------------------------------|------------------------------------------|
-----------------2--------------|-----------------------------------2-0--L-|
--------------------------------|-----------------------------------2-0--L-|
--2--2--2--2--2-----2--2--2--2--|-----2--2--2--2--2--2--7--5--4--2--2-0--L-|


  Q    E  E  E  E  E  E     H         E  E  E   E     Q    E  E  E  E   E  E
-------------------------|-------------------------|--------------------------|
-------------------------|-------------------------|--------------------------|
-------------------------|-------------------------|--------------------------|
----------7--9--7--6-----|-----------11--9--7------|----------7--9--7------7--|
--9----L--------------9--|--L------------------11--|--L----L-----------11-----|
-------------------------|-------------------------|--------------------------|


                            PM PM PM PM PM PM PM  PM
  E  E  E  Q    E  E  E     S  S  S  S  S  S  S   S E  E  E  E
-------------------------|--------------------------------------|
-------------------------|--------------------------------------|
-------------------------|--------------------------------------|
--L--6----------6--------|-----------6--7--9--9--11-9--7--6-----|
--------9--7-------9--7--|--5--7--9--------------------------9--|
-------------------------|--------------------------------------|


  H         E  E  E   E     Q    E  E  E  E   E  E     E  E  E  Q    E  E  E
-------------------------|--------------------------|-------------------------|
-------------------------|--------------------------|-------------------------|
-------------------------|--------------------------|-------------------------|
-----------11--9--7------|----------7--9--7------7--|--L--6----------6--------|
--L------------------11--|--L----L-----------11-----|--------9--7-------9--7--|
-------------------------|--------------------------|-------------------------|


  Q    E  E  E  E  E  E     H         E  E  E   E     Q    E  E  E  E   E  E
-------------------------|-------------------------|--------------------------|
-------------------------|-------------------------|--------------------------|
-------------------------|-------------------------|--------------------------|
----------7--9--7--6-----|-----------11--9--7------|----------7--9--7------7--|
--9----L--------------9--|--L------------------11--|--L----L-----------11-----|
-------------------------|-------------------------|--------------------------|


                            PM PM PM PM PM PM PM  PM
  E  E  E  Q    E  E  E     S  S  S  S  S  S  S   S E  E  E  E
-------------------------|--------------------------------------|
-------------------------|--------------------------------------|
-------------------------|--------------------------------------|
--L--6----------6--------|-----------6--7--9--9--11-9--7--6-----|
--------9--7-------9--7--|--5--7--9--------------------------9--|
-------------------------|--------------------------------------|


  H         E  E  E   E     Q    E  E  E  E   E  E     E  E  E  Q    E  E  E
-------------------------|--------------------------|-------------------------|
-------------------------|--------------------------|-------------------------|
-------------------------|--------------------------|-------------------------|
-----------11--9--7------|----------7--9--7------7--|--L--6----------6--------|
--L------------------11--|--L----L-----------11-----|--------9--7-------9--7--|
-------------------------|--------------------------|-------------------------|


          PM PM       PM PM       PM PM    PM PM    PM PM
  Q    E  S  S  E  E  S  S  E     S  S  E  S  S  E  S  S  E   E   E
-------------------------------|-------------------------------------|
-------------------------------|-------------------------------------|
----------------5--------------|-------------------------------------|
--4----4--4--4--5--4--4--4--5--|--4--4--6--4--4--7--4--4--9--10--11--|
--4----4--4--4--3--4--4--4--5--|--4--4--6--4--4--7--4--4--9--10--11--|
--4----4--4--4-----4--4--4--5--|--4--4--6--4--4--7--4--4--9--10--11--|


       PM PM PM PM       PM PM       PM PM    PM PM    PM PM PM PM PM PM PM PM
  Q    S  S  S  S  E  E  S  S  E     S  S  E  S  S  E  S  S  S  S  S  S  S  S
----------------------------------|--------------------------------------------|
----------------------------------|--------------------------------------------|
-------------------5--------------|--------------------------------------------|
--4----4--4--4--4--5--4--4--4--5--|--4--4--6--4--4--7--4--4--2--0--------------|
--4----4--4--4--4--3--4--4--4--5--|--4--4--6--4--4--7--4--4--------2--3--------|
--4----4--4--4--4-----4--4--4--5--|--4--4--6--4--4--7--4--4--------------7--4--|


          PM PM       PM PM       PM PM    PM PM    PM PM
  Q    E  S  S  E  E  S  S  E     S  S  E  S  S  E  S  S  E   E   E
-------------------------------|-------------------------------------|
-------------------------------|-------------------------------------|
----------------5--------------|-------------------------------------|
--4----4--4--4--5--4--4--4--5--|--4--4--6--4--4--7--4--4--9--10--11--|
--4----4--4--4--3--4--4--4--5--|--4--4--6--4--4--7--4--4--9--10--11--|
--4----4--4--4-----4--4--4--5--|--4--4--6--4--4--7--4--4--9--10--11--|


       PM PM PM PM       PM PM       PM PM    PM PM    PM PM PM PM PM PM PM PM
  Q    S  S  S  S  E  E  S  S  E     S  S  E  S  S  E  S  S  S  S  S  S  S  S
----------------------------------|--------------------------------------------|
----------------------------------|--------------------------------------------|
-------------------5--------------|--------------------------------------------|
--4----4--4--4--4--5--4--4--4--5--|--4--4--6--4--4--7--4--4--2--0--------------|
--4----4--4--4--4--3--4--4--4--5--|--4--4--6--4--4--7--4--4--------2--3--------|
--4----4--4--4--4-----4--4--4--5--|--4--4--6--4--4--7--4--4--------------7--4--|


     PM          PM PM                   PM PM PM PM PM PM PM PM
  E  E  E  E  E  E  E  E     E  E  E  E  S  S  S  S  S  S  S  S
--------------------------|--------------------------------------|
--------------------------|--------------------------------------|
--------5-----------------|--------5-----------------------------|
--4--4--5--4--7--4--4--4--|--L--4--5--4--2--0--------------------|
--4--4--3--4--7--4--4--4--|--L--4--3--4--------2--3--------------|
--4--4-----4--7--4--4--4--|--L--4-----4--------------7--4--4--4--|


     PM          PM PM          PM PM PM PM PM PM PM PM PM PM PM PM PM PM
  E  E  E  E  E  E  E  E     E  S  S  S  S  S  S  S  S  S  S  S  S  S  S
--------------------------|-----------------------------------------------|
--------------------------|-----------------------------------------------|
--------5-----------------|-----------------------------------------------|
--4--4--5--4--7--4--4--4--|--L--------------------------------------------|
--4--4--3--4--7--4--4--4--|--L--6--6--6--6--6--6--6--6--6--6--6--6--6--6--|
--4--4-----4--7--4--4--4--|--L--------------------------------------------|


     PM          PM PM                   PM PM PM PM PM PM PM PM
  E  E  E  E  E  E  E  E     E  E  E  E  S  S  S  S  S  S  S  S
--------------------------|--------------------------------------|
--------------------------|--------------------------------------|
--------5-----------------|--------5-----------------------------|
--4--4--5--4--7--4--4--4--|--L--4--5--4--2--0--------------------|
--4--4--3--4--7--4--4--4--|--L--4--3--4--------2--3--------------|
--4--4-----4--7--4--4--4--|--L--4-----4--------------7--4--4--4--|


     PM          PM PM          PM PM PM PM PM PM PM PM PM PM PM PM PM PM
  E  E  E  E  E  E  E  E     E  S  S  S  S  S  S  S  S  S  S  S  S  S  S
--------------------------|-----------------------------------------------|
--------------------------|-----------------------------------------------|
--------5-----------------|-----------------------------------------------|
--4--4--5--4--7--4--4--4--|--L--------------------------------------------|
--4--4--3--4--7--4--4--4--|--L--6--6--6--6--6--6--6--6--6--6--6--6--6--6--|
--4--4-----4--7--4--4--4--|--L--------------------------------------------|


     PM PM PM PM    PM PM PM PM       PM PM PM PM PM PM
  E  S  E  S  E  E  S  E  S  E     E  S  S  S  S  S  S  E  S S Q
--------------------------------|------------------------------------|
--------------------------------|------------------------------------|
--------------------------------|------------------------------------|
-----------------2--------------|-----------------------2------------|
--------------------------------|------------------------------------|
--2--2--2--2--2-----2--2--2--2--|-----2--2--2--2--2--2-----2-2-5b----|


     PM PM PM PM    PM PM PM PM       PM PM PM PM PM PM PM PM PM PM
  E  S  E  S  E  E  S  E  S  E     E  S  S  S  S  S  S  S  S  S  S  S E  S
--------------------------------|------------------------------------------|
--------------------------------|------------------------------------------|
--------------------------------|------------------------------------------|
-----------------2--------------|-----------------------------------2-0--L-|
--------------------------------|-----------------------------------2-0--L-|
--2--2--2--2--2-----2--2--2--2--|-----2--2--2--2--2--2--7--5--4--2--2-0--L-|


     PM PM PM PM    PM PM PM PM       PM PM PM PM PM PM
  E  S  E  S  E  E  S  E  S  E     E  S  S  S  S  S  S  E  S S Q
--------------------------------|------------------------------------|
--------------------------------|------------------------------------|
--------------------------------|------------------------------------|
-----------------2--------------|-----------------------2------------|
--------------------------------|------------------------------------|
--2--2--2--2--2-----2--2--2--2--|-----2--2--2--2--2--2-----2-2-5b----|


     PM PM PM PM    PM PM PM PM       PM PM PM PM PM PM PM PM PM PM
  E  S  E  S  E  E  S  E  S  E     E  S  S  S  S  S  S  S  S  S  S  S E  S
--------------------------------|------------------------------------------|
--------------------------------|------------------------------------------|
--------------------------------|------------------------------------------|
-----------------2--------------|-----------------------------------2-0--L-|
--------------------------------|-----------------------------------2-0--L-|
--2--2--2--2--2-----2--2--2--2--|-----2--2--2--2--2--2--7--5--4--2--2-0--L-|


  Q    E  E  E  E  E  E     H         E  E  E   E     Q    E  E  E  E   E  E
-------------------------|-------------------------|--------------------------|
-------------------------|-------------------------|--------------------------|
-------------------------|-------------------------|--------------------------|
----------7--9--7--6-----|-----------11--9--7------|----------7--9--7------7--|
--9----L--------------9--|--L------------------11--|--L----L-----------11-----|
-------------------------|-------------------------|--------------------------|


                            PM PM PM PM PM PM PM  PM
  E  E  E  Q    E  E  E     S  S  S  S  S  S  S   S E  E  E  E
-------------------------|--------------------------------------|
-------------------------|--------------------------------------|
-------------------------|--------------------------------------|
--L--6----------6--------|-----------6--7--9--9--11-9--7--6-----|
--------9--7-------9--7--|--5--7--9--------------------------9--|
-------------------------|--------------------------------------|


  H         E  E  E   E     Q    E  E  E  E   E  E     E  E  E  Q    E  E  E
-------------------------|--------------------------|-------------------------|
-------------------------|--------------------------|-------------------------|
-------------------------|--------------------------|-------------------------|
-----------11--9--7------|----------7--9--7------7--|--L--6----------6--------|
--L------------------11--|--L----L-----------11-----|--------9--7-------9--7--|
-------------------------|--------------------------|-------------------------|


  Q    E  E  E  E  E  E     H         E  E  E   E     Q    E  E  E  E   E  E
-------------------------|-------------------------|--------------------------|
-------------------------|-------------------------|--------------------------|
-------------------------|-------------------------|--------------------------|
----------7--9--7--6-----|-----------11--9--7------|----------7--9--7------7--|
--9----L--------------9--|--L------------------11--|--L----L-----------11-----|
-------------------------|-------------------------|--------------------------|


                            PM PM PM PM PM PM PM  PM
  E  E  E  Q    E  E  E     S  S  S  S  S  S  S   S E  E  E  E
-------------------------|--------------------------------------|
-------------------------|--------------------------------------|
-------------------------|--------------------------------------|
--L--6----------6--------|-----------6--7--9--9--11-9--7--6-----|
--------9--7-------9--7--|--5--7--9--------------------------9--|
-------------------------|--------------------------------------|


  H         E  E  E   E     Q    E  E  E  E   E  E     E  E  E  Q    E  E  E
-------------------------|--------------------------|-------------------------|
-------------------------|--------------------------|-------------------------|
-------------------------|--------------------------|-------------------------|
-----------11--9--7------|----------7--9--7------7--|--L--6----------6--------|
--L------------------11--|--L----L-----------11-----|--------9--7-------9--7--|
-------------------------|--------------------------|-------------------------|


  Q    Q    Q    Q       Q    Q     Q    Q       Q    Q    Q    Q
----------------------|-----------------------|----------------------|
----------------------|-----------------------|----------------------|
----------------------|------------/9----L----|--L----L----L----L----|
----------------------|-----------------------|----------------------|
----------------------|-----------------------|----------------------|
----------------------|-----------------------|----------------------|


  Q    Q    Q     Q        E   E  E  E  E  E  E  E     H        Q    Q
------------------------|---------------------------|----------------------|
------------------------|---------------------------|----------------------|
--L----L----9b----L\----|-----/5--L--L--L--L--L--L--|--L--------L----L\----|
------------------------|---------------------------|----------------------|
------------------------|---------------------------|----------------------|
------------------------|---------------------------|----------------------|


   T     T     T     T     T     T     T     T
   S  S  S  S  S  S  S  S  S  S  S  S  S  S  S  S
--22----22----21----22----24----22----21----22----|
-----15----15----15----15----15----15----15----15-|
--------------------------------------------------|
--------------------------------------------------|
--------------------------------------------------|
--------------------------------------------------|


   T     T     T     T                   W         T
   S  S  S  S  S  S  S  S  H             H         E  E  E   S S
--22----22----21----22----15b--------|------------17--L--L-------|
-----15----15----15----15------------|---------------------------|
-------------------------------------|---------------------------|
-------------------------------------|---------------------------|
-------------------------------------|---------------------------|
-------------------------------------|--12------------------12-0-|


   T          T    T    T    T    T    T
              |--3-| |--3-|  |--3-| |--3-|
   H          S S  S S  S S  S S  S S  S S     H         E   Q     E
-------------------------------------------|--18b-----------26b----L--|
--19b--------19---19---19---19---19---19---|--------------------------|
-------------------------------------------|--------------------------|
-------------------------------------------|--------------------------|
----------------8----8----8----8----8----8-|--------------------------|
-------------------------------------------|--------------------------|


             PM PM PM PM PM PM PM PM PM PM PM
             |--3--|  |--3--|  |--3--|  |--3-|
  Q    E  S  S  S  S  S  S  S  S  S  S  S  S S S
--L----L-----------------------------------------|
-------------------------------------------------|
-------------------------------------------------|
---------------------11-12-14-12-11--------------|
------------11-12-14----------------14-12-11-----|
-------------------------------------------------|


   |--3--|  |--3--|  |--3--|  |--3--|  |--3--|  |--3--|  |--3--|  |--3--|
   S  S  S  S  S  S  S  S  S  S  S  S  S  S  S  S  S  S  S  S  S  S  S  S
--------------------------------------------------------------------------|
--15-15-15-15-15-15-14-14-14-14-14-14-14-14-14-14-14-14-14-14-14-14-14-14-|
--------------------------------------------------------------------------|
--------------------------------------------------------------------------|
--------------------------------------------------------------------------|
--------------------------------------------------------------------------|


   |--3--|  |--3--|  |--3--|  |--3--|  |--3--|  |--3--|  |--3--|  |--3--|
   S  S  S  S  S  S  S  S  S  S  S  S  S  S  S  S  S  S  S  S  S  S  S  S
--------------------------------------------------------------------------|
--12-12-12-12-12-15-15-15-15-15-14-14-14-14-14-18-18-18-18-18-18-18-18-18-|
--------------------------------------------------------------------------|
--------------------------------------------------------------------------|
--------------------------------------------------------------------------|
--------------------------------------------------------------------------|


   |--3--|  |--3--|  |--3--|  |--3--|  |--3--|  |--3--|  |--3--|  |--3--|
   S  S  S  S  S  S  S  S  S  S  S  S  S  S  S  S  S  S  S  S  S  S  S  S
--------------------------------------------------------------------------|
--15-15-15-15-15-15-14-14-14-14-14-14-12-12-14-15-15-14-12-12-14-15-14-12-|
--------------------------------------------------------------------------|
--------------------------------------------------------------------------|
--------------------------------------------------------------------------|
--------------------------------------------------------------------------|


   |--3--|  |--3--|  |--3--|  |--3--|          |--3--|
   S  S  S  S  S  S  S  S  S  S  S  S  Q    E  S  S  S
-------------------------------------------------------|
--14-15-14-12-14-15-14-12-14-15-14-12-14----L----------|
-----------------------------------------------9-11-12-|
-------------------------------------------------------|
-------------------------------------------------------|
-------------------------------------------------------|


  |--3--| |--3--| |--3--| |--3--| |--3--| |--3--| |--3--|  |--3-|
  S  S  S S  S  S S  S  S S  S  S S  S  S S  S  S S  S  S  S S  S
------------------9-----------------------------------------------|
--9-------------------------------9---------------9-11-12-11-9----|
----12-11-9-11-12---12-11-9-11-12---12-11-9-11-12--------------12-|
------------------------------------------------------------------|
------------------------------------------------------------------|
------------------------------------------------------------------|


   |--3--|  |--3--|  |--3--|  |--3--|  |--3--|  |--3--|  |--3--|  |--3--|
   S  S  S  S  S  S  S  S  S  S  S  S  S  S  S  S  S  S  S  S  S  S  S  S
--------------------17-16-14----------16-14-12----------14-12-11----------|
--17-16-14-------------------17-16-14----------16-14-12----------14-12-11-|
-----------17-16-14-------------------------------------------------------|
--------------------------------------------------------------------------|
--------------------------------------------------------------------------|
--------------------------------------------------------------------------|


   |--3-|  |-3-| |-3-|  |--3-|  |-3-| |-3-|  |-3-| |--3-|
   S  S S  S S S S S S  S  S S  S S S S S S  S S S S  S S
--12-11-9-11-9-7-9-7-6------------------------------------|
-----------------------12-11-9-11-9-7-9-7-6------8--------|
--------------------------------------------10-7---7-10-7-|
----------------------------------------------------------|
----------------------------------------------------------|
----------------------------------------------------------|


   |-3-| |-3-| |-3-| |-3-| |-3-| |-3-| |-3-| |-3-|
   S S S S S S S S S S S S S S S S S S S S S S S S    Q    E  E  E  E  E  E
---------------------------------------------------|-------------------------|
---------------------------------------------------|-------------------------|
---------------------------------------------------|-------------------------|
--11-9-7-6-7-9-7-6-4-6-7-6-4-2-4-6-4-2-0-2-4-2-0-2-|--4----L--7--9--7--6-----|
---------------------------------------------------|----------------------9--|
---------------------------------------------------|-------------------------|


  H         E  E  E   E     Q    E  E  E  E   E  E     E  E  E  Q    E  E  E
-------------------------|--------------------------|-------------------------|
-------------------------|--------------------------|-------------------------|
-------------------------|--------------------------|-------------------------|
-----------11--9--7------|----------7--9--7------7--|--L--6----------6--------|
--L------------------11--|--L----L-----------11-----|--------9--7-------9--7--|
-------------------------|--------------------------|-------------------------|


  PM PM PM PM PM PM PM  PM
  S  S  S  S  S  S  S   S E  E  E  E     H         E  E  E   E
--------------------------------------|-------------------------|
--------------------------------------|-------------------------|
--------------------------------------|-------------------------|
-----------6--7--9--9--11-9--7--6-----|-----------11--9--7------|
--5--7--9--------------------------9--|--L------------------11--|
--------------------------------------|-------------------------|


  Q    E  E  E  E   E  E     E  E  E  Q    E  E  E     Q    E  E  E  E  E  E
--------------------------|-------------------------|-------------------------|
--------------------------|-------------------------|-------------------------|
--------------------------|-------------------------|-------------------------|
----------7--9--7------7--|--L--6----------6--------|----------7--9--7--6-----|
--L----L-----------11-----|--------9--7-------9--7--|--9----L--------------9--|
--------------------------|-------------------------|-------------------------|


  H         E  E  E   E     Q    E  E  E  E   E  E     E  E  E  Q    E  E  E
-------------------------|--------------------------|-------------------------|
-------------------------|--------------------------|-------------------------|
-------------------------|--------------------------|-------------------------|
-----------11--9--7------|----------7--9--7------7--|--L--6----------6--------|
--L------------------11--|--L----L-----------11-----|--------9--7-------9--7--|
-------------------------|--------------------------|-------------------------|


  PM PM PM PM PM PM PM  PM
  S  S  S  S  S  S  S   S E  E  E  E     H         E  E  E   E
--------------------------------------|-------------------------|
--------------------------------------|-------------------------|
--------------------------------------|-------------------------|
-----------6--7--9--9--11-9--7--6-----|-----------11--9--7------|
--5--7--9--------------------------9--|--L------------------11--|
--------------------------------------|-------------------------|


  Q    E  E  E  E   E  E     E  E  E  Q    E  E  E
--------------------------|-------------------------|
--------------------------|-------------------------|
--------------------------|-------------------------|
----------7--9--7------7--|--L--6----------6--------|
--L----L-----------11-----|--------9--7-------9--7--|
--------------------------|-------------------------|


  PM PM    PM PM    PM PM                    PM PM PM PM       PM PM
  S  S  E  S  S  E  S  S  E   E   E     Q    S  S  S  S  E  E  S  S  E
-------------------------------------|----------------------------------|
-------------------------------------|----------------------------------|
-------------------------------------|-------------------5--------------|
--4--4--6--4--4--7--4--4--9--10--11--|--4----4--4--4--4--5--4--4--4--5--|
--4--4--6--4--4--7--4--4--9--10--11--|--4----4--4--4--4--3--4--4--4--5--|
--4--4--6--4--4--7--4--4--9--10--11--|--4----4--4--4--4-----4--4--4--5--|


  PM PM    PM PM    PM PM PM PM PM PM PM PM            PM PM       PM PM
  S  S  E  S  S  E  S  S  S  S  S  S  S  S     Q    E  S  S  E  E  S  S  E
--------------------------------------------|-------------------------------|
--------------------------------------------|-------------------------------|
--------------------------------------------|----------------5--------------|
--4--4--6--4--4--7--4--4--2--0--------------|--4----4--4--4--5--4--4--4--5--|
--4--4--6--4--4--7--4--4--------2--3--------|--4----4--4--4--3--4--4--4--5--|
--4--4--6--4--4--7--4--4--------------7--4--|--4----4--4--4-----4--4--4--5--|


  PM PM    PM PM    PM PM                    PM PM PM PM       PM PM
  S  S  E  S  S  E  S  S  E   E   E     Q    S  S  S  S  E  E  S  S  E
-------------------------------------|----------------------------------|
-------------------------------------|----------------------------------|
-------------------------------------|-------------------5--------------|
--4--4--6--4--4--7--4--4--9--10--11--|--4----4--4--4--4--5--4--4--4--5--|
--4--4--6--4--4--7--4--4--9--10--11--|--4----4--4--4--4--3--4--4--4--5--|
--4--4--6--4--4--7--4--4--9--10--11--|--4----4--4--4--4-----4--4--4--5--|


  PM PM    PM PM      PM PM
  S  S  E  S  S  Q    E  E  E     W
-------------------------------|-------------------||
-------------------------------|-------------------||
-------------------------------|-------------------||
--4--4--6--4--4--7----2--1--0--|-------------------||
--4--4--6--4--4--7----0--0--0--|-------------------||
--4--4--6--4--4--7----0--0--0--|-------------------||


Duration Legend
---------------
W - whole
H - half
Q - quarter
E - 8th
S - 16th
T - 32nd
X - 64th
. - note dotted
|-n-|  - n-tuplets


Tablature Legend
----------------
L - tied note
x - dead note
g - grace note
(n) - ghost note
> - accentuded note
NH - natural harmonic
AH - artificial harmonic
TH - tapped harmonic
SH - semi harmonic
PH - pitch harmonic
h - hammer on
p - pull off
b - bend
br - bendRelease
pb - preBend
pbr - preBendRelease
brb - bendReleaseBend
\n/ - tremolo bar dip
\n - tremolo bar dive
-/n - tremolo bar Release up
/n\ - tremolo bar inverted dip
/n - tremolo bar return
-\n - tremolo bar Release down
S - shift slide
s - legato slide
/ -  slide into from below or out of upwards
\ -  slide into from above or out of downwards
~ - vibrato
W - wide vibrato
tr - trill
TP - tremolo picking
T - tapping
S - slap
P - pop
< - fade in
^ - brush up
v - brush down


That is all! I hope this helped, and be sure to check out my cover if you are
having problems with the tab. Thanks, oh and one last thing... ROCK OUT!!!!
Добавлено: 06.11.2013
Другие материалы по этой песне:

Страница создана 06.11.2013
http://primanota.ru/five-finger-death-punch/im-sin-chords.htm
Привет, Гость.
Предлагаем пройти революционный курс по гитаре.
Подарок от PrimaNota.Ru, забирай!