PrimaNota.ru - самый крупный в мире бесплатный архив песенных текстов, аккордов, табулатур и нот


Fitz And The Tantrums - We Dont Need No Love Songs - аккорды и текст, видео

Регистрация Запомнить меня
Войти через:  Facebook Google Twitter Vk Yandex Mail.ru

Fitz And The Tantrums - We Dont Need No Love Songs - аккорды и текст, видео

Печатать
Просмотров: 165
We Dont Need No Love Songs
Fitz And The Tantrums
                        We Don't Need No Love Songs
                           Fitz and the Tantrums

This is a great song.  I tabbed out all the chords that are used.  
Some of the names look scary but they aren't too difficult to learn.
Notice the alternate shape for the Eb7M  .  That shape sounds way better
than the more orthodox shapes for maj7 chords you may be familiar with.
The ending may not be completely accurate if you're trying to sound exactly
like the recording but it gets the job done.  Enjoy!

Intro:

  Bb  Bb7M    Bbmaj9  Gm   Dm   D7   Gm  Eb7M    Cm   F   Fsus4
|---------------------3----5----5----3----3------3----1-------------|
|-3----3-------1------3----6----7----3----3------4----1-------------|
|-3----2-------2------3----7----5----3----3------5----2---3---------|
|-3----3-------3------5----7----7----5----5------5----3---3---------|
|-1----1-------1------5----5----5----5----6------3----3---3---------|
|---------------------3--------------3----3-----------1---1---------|
                                                                    
Bb                                                                  
We don't need no love song
Bb7M         Bbmaj9
To tell the world
    Gm
How hopeless we feel
          Dm        D7
When it's dead and gone
          Gm
I've been lost without a reason
   Eb7M  
To keep going on
    Cm 
The truth is you won't
          F             Fsus4
be coming back here no more
 
Cause we don't need no love songs
To feel the pain
Everybody's been through love in vain
We're fools for the heartaches
And blind to the soul
Can't feel the cut
Until the blood hits the floor
 
Dm                   Gm
And it hurts so good
Dm                   Gm
To feel the way lonely should
Dm                   Gm
Sorrow or comfort  Joy is just a name
    Cm               Dm
You give to her forgiveness
Eb                         F      Fsus4  F
And you take with you the blame
 
I don't need no love song
To make it real
I saw you coming
And this is how I feel
The truth it can be painful
It hurts to be told
The song is almost over
And it's time to move on
 
Cause we don't need no love song
We don't need no love song
We don't need no love song 

Ending: (Start playing this when you get the F of the regular progression)

    F     Fsus4     Adim   Eb7M  (b5)   Bb
|---1-----------------------------------6-----|
|---1-----------------------------------6-----|
|---2-------3---------5---------7-------7-----|
|---3-------3---------7---------7-------8-----|
|---3-------3---------6---------6-------8-----|
|---1-------1---------5-----------------6-----|
Добавлено: 14.06.2013
Другие материалы по этой песне:
  • Аккорды и текст

Страница создана 14.06.2013
http://primanota.ru/fitz-and-the-tantrums/we-dont-need-no-love-songs-chords.htm
Привет, Гость.
Предлагаем пройти революционный курс по гитаре.
Подарок от PrimaNota.Ru, забирай!