PrimaNota.ru - самый крупный в мире бесплатный архив песенных текстов, аккордов, табулатур и нот


Fit For An Autopsy - Absolute Hope Absolute Hell - таба, видео

Регистрация Запомнить меня
Войти через:  Facebook Google Twitter Vk Yandex Mail.ru

Fit For An Autopsy - Absolute Hope Absolute Hell - таба, видео

Печатать
Просмотров: 59
-------------------------------------------------------------------------------
                             Absolute hope absolute hell - Fit for an autopsy
-------------------------------------------------------------------------------
Tabbed by: Jussi Boersma
E-mail: jussiboersma@gmail.com

Tuning: standard

e|--------12--------------12-----------11------------------11----------------|
B|------------12--12h13-------12h13----------12---12h13----------12h13---13--|
G|---------------------------------------------------------------------------|
D|---------------------------------------------------------------------------|
A|---------------------------------------------------------------------------|
E|---------------------------------------------------------------------------|

e|----------------------------------------------------------11s12------------|
B|-------------------13----------------13-------------------------12s13------|
G|----11---11h12-------------11h12-----------11------11s12--------------11s12|
D|---------------------------------------------------------------------------|
A|---------------------------------------------------------------------------|
E|---------------------------------------------------------------------------| 


************************************

| /   slide up
| \   slide down
| h   hammer-on
| p   pull-off
| ~   vibrato
| +   harmonic
| x   Mute note
| b   Bend
| pb  Pre-bend
| br  Bend release
| pbr Pre-bend release
| brb Bend release bend

************************************
Добавлено: 19.05.2016
Другие материалы по этой песне:

Страница создана 19.05.2016
http://primanota.ru/fit-for-an-autopsy/absolute-hope-absolute-hell-chords.htm
Привет, Гость.
Предлагаем пройти революционный курс по гитаре.
Подарок от PrimaNota.Ru, забирай!