PrimaNota.ru - самый крупный в мире бесплатный архив песенных текстов, аккордов, табулатур и нот


Fiskales Ad-hok - Borracho - таба, видео

Регистрация Запомнить меня
Войти через:  Facebook Google Twitter Vk Yandex Mail.ru

Fiskales Ad-hok - Borracho - таба, видео

Печатать
Просмотров: 42
Уроки эстрадного вокала в Санкт-Петербурге
INTRO

e------------------------------------------------------
B------------------------------------------------------   Esto se
G------------6-7-88-7-6-------------6-7-88-7-6--------- Repite artas
D---------77-------------777777-77-------------777777--    Veces.
A------------------------------------------------------
E------------------------------------------------------

Uaaaaahh!!
      G
e-----------------
B-----------------
G-----------------
D-----5-----------
A-----5-----------
E-----3-----------


La otra noche te encontre |Borracho en la komisaria.
     G          C    D    | G                C    D
e-------------------------|-------------------------------
B-------------------------|-------------------------------
G---------------5----7----|------------------5----7-------
D----5----------5----7----|-5----------------5----7-------
A----5----------3----5----|-5----------------3----5-------
E----3--------------------|-3-----------------------------


Un cigarrillo te pedi     | Pero el sargento me patio, y . .
     G          C    D    | G                C    D
e-------------------------|-------------------------------
B-------------------------|-------------------------------
G---------------5----7----|------------------5----7-------
D----5----------5----7----|-5----------------5----7-------
A----5----------3----5----|-5----------------3----5-------
E----3--------------------|-3-----------------------------


Hablamos de lo mismo . . .|Siempre ofrecen nueva vida . . .
     C        G           |
e-------------------------|-------------------------------
B-------------------------|-------------------------------En esta parte
G----5--------------------|-----5------------------------- Todo el coro
D----5--------5-----------|-----5--------5----------------  es igual.
A----3--------5-----------|-----3--------5----------------
E-------------3-----------|--------------3----------------


La otra noche te encontre |Borracho en la komisaria.
     G          C    D    | G                C    D
e-------------------------|-------------------------------
B-------------------------|-------------------------------
G---------------5----7----|------------------5----7-------
D----5----------5----7----|-5----------------5----7-------
A----5----------3----5----|-5----------------3----5-------
E----3--------------------|-3-----------------------------


Un cigarrillo me pediste  | Pero el sargento te patio, y . .
     G          C    D    | G                C    D
e-------------------------|-------------------------------
B-------------------------|-------------------------------
G---------------5----7----|------------------5----7-------
D----5----------5----7----|-5----------------5----7-------
A----5----------3----5----|-5----------------3----5-------
E----3--------------------|-3-----------------------------


Hablamos de lo mismo . . .|Siempre ofrecen nueva vida . . .
     C        G           |     C        G
e-------------------------|-------------------------------
B-------------------------|------------------------------- Esta parte
G----5--------------------|-----5-------------------------Todo el coro
D----5--------5-----------|-----5--------5---------------- es lo mismo.
A----3--------5-----------|-----3--------5----------------
E-------------3-----------|--------------3----------------


. . . . . . . . . . . . . | . . . . . . . . . . . . . . .
     G    C xx   C xx     |   G     C xx   C xx
e-------------------------|-------------------------------
B-------------------------|-------------------------------
G---------5-33---5-33-----|---------5-33---5-33-----------
D----5----5-33---5-33-----|---5-----5-33---5-33-----------
A----5----3-11---3-11-----|---5-----3-11---3-11-----------
E----3--------------------|---3---------------------------


Esta parte no me la se en acordes normales.
. . . . . . . . . . . . . | . . . . . . . . . . . . . . .
     D    x  xx   x  xx   |   D     x  xx   x  xx
e-------------------------|-------------------------------
B-------------------------|-------------------------------
G----5----10-88---10-88---|---5-----10-88---10-88---------
D----5----10-88---10-88---|---5-----10-88---10-88---------
A----3----8--66---8--66---|---3-----8--66---8--66---------
E-------------------------|-------------------------------


. . . . . . . . . . . . . | . . . . . . . . . . . . . . .
     G    C xx   C xx     |   G     C xx   C xx
e-------------------------|-------------------------------
B-------------------------|-------------------------------
G---------5-33---5-33-----|---------5-33---5-33-----------
D----5----5-33---5-33-----|---5-----5-33---5-33-----------
A----5----3-11---3-11-----|---5-----3-11---3-11-----------
E----3--------------------|---3---------------------------


. . . . . . . . . . . . . |
     D    C  x C          |
e-------------------------|
B-------------------------|
G----7----5--4------------|
D----7----5--4------------|
A----5----3--2------------|
E-------------------------|

La otra noche te encontre borracho en la comisaria un cigarrillo
te pedi pero el sargento me patioo!

. . . . . . . . . . . . . | . . . . . . . . . . . . . . .
     G    C xx   C xx     |   G     C xx   C xx
e-------------------------|-------------------------------
B-------------------------|-------------------------------
G---------5-33---5-33-----|---------5-33---5-33-----------
D----5----5-33---5-33-----|---5-----5-33---5-33-----------
A----5----3-11---3-11-----|---5-----3-11---3-11-----------
E----3--------------------|---3---------------------------


La otra noche te encontre. . . .
Aqui se repite la primera parte.
Siempre te ofrecen nueva vida pero todo sigue igual.

. . . . . . . . . . . . . | . . . . . . . . . . . . . . .
     G    C xx   C xx     |   G     C xx   C xx
e-------------------------|-------------------------------
B-------------------------|-------------------------------
G---------5-33---5-33-----|---------5-33---5-33-----------
D----5----5-33---5-33-----|---5-----5-33---5-33-----------
A----5----3-11---3-11-----|---5-----3-11---3-11-----------
E----3--------------------|---3---------------------------


Esta parte no me la se en acordes normales.
. . . . . . . . . . . . . | . . . . . . . . . . . . . . .
     D    x  xx   x  xx   |   D     x  xx   x  xx
e-------------------------|-------------------------------
B-------------------------|-------------------------------
G----5----10-88---10-88---|---5-----10-88---10-88---------
D----5----10-88---10-88---|---5-----10-88---10-88---------
A----3----8--66---8--66---|---3-----8--66---8--66---------
E-------------------------|-------------------------------


. . . . . . . . . . . . . | . . . . . . . . . . . . . . .
     G    C xx   C xx     |   G     C xx   C xx
e-------------------------|-------------------------------
B-------------------------|-------------------------------
G---------5-33---5-33-----|---------5-33---5-33-----------
D----5----5-33---5-33-----|---5-----5-33---5-33-----------
A----5----3-11---3-11-----|---5-----3-11---3-11-----------
E----3--------------------|---3---------------------------

. . . . . . . . . . . . . | . . . . . . . . . . . . . . .
     D    C  x C          |   D     C x
e-------------------------|-------------------------------
B-------------------------|-------------------------------
G----7----5--4-5----------|---7-----5-4-------------------
D----7----5--4-5----------|---7-----5-4-------------------
A----5----3--2-3----------|---5-----3-2-------------------
E-------------------------|-------------------------------

Esta es la parte lenta de la cancion.
e-------------------------|-------------------------------
B-------------------------|-------------------------------
G--------------5----------|-------------5-----------------
D----5---------5----------|---5---------5-----------------
A----5---------3----------|---5---------3-----------------
E----3--------------------|---3---------------------------
Al mismo tiempo el bajo hace esto:

G-------------------------|-------------------------------
D-------------------------|-------------------------------
A-------1-1-3-5-----------|-----1-1-3-5-------------------
E--3-3--------------------|--3-3--------------------------


TODO SIGE IGUAL. . .


Por Hormiga.

----------------------------------------------------------------------
La cancion era mas larga pero es todo lo mismo asi que no quise ocupar
mas espacio en copiar y pegar.

-Tambien la puse en acordes normales ahi apretandole en la parte de
arriba de la pagina donde dice acordes pueden encontrarlos.
G = SOL
C = DO
D = RE
Добавлено: 17.08.2014
Другие материалы по этой песне:
  • Аккорды и текст

Страница создана 17.08.2014
http://primanota.ru/fiskales-ad-hok-2/borracho-chords.htm
Привет, Гость.
Предлагаем пройти революционный курс по гитаре.
Подарок от PrimaNota.Ru, забирай!