PrimaNota.ru - самый крупный в мире бесплатный архив песенных текстов, аккордов, табулатур и нот


Fisher - Different Kind Of Wonerful - аккорды и текст, видео

Регистрация Запомнить меня
Войти через:  Facebook Google Twitter Vk Yandex Mail.ru

Fisher - Different Kind Of Wonerful - аккорды и текст, видео

Печатать
Просмотров: 120
Уроки эстрадного вокала в Санкт-Петербурге
Different Kind Of Wonerful
Fisher
Fisher
"Different Kind of Wonderful"
from "Uppers & Downers"

Tabbed by Brian McElwain


The basic rhythm figure for the intro & verse is as follows:

   Bm           G           D           A
e|---------2------------------------------------------------
B|-------3------------3---------3---3-------3h5p3-2-0-------
G|-----4----------------------2---2-------------------2-----
D|---4--------------0-------0-------------2-----------------
A|-2--------------2---------------------0-------------------
E|--------------3-------------------------------------------


   Bm           G           D           A
e|---------2--------------------------------0---------------
B|-------3------------3---------3---3---------3-2-0---------
G|-----4----------------------2---2-----------------2-------
D|---4--------------0-------0-------------2-----------------
A|-2--------------2---------------------0-------------------
E|--------------3-------------------------------------------


Repeat this figure again for the first two lines of the verse,
then for the last line, it switches to:

   Bm           G           D           A
e|---------2------------------------------------0-----------
B|-------3------------3---------3---3---------2---3-2-0-----
G|-----4----------------------2---2---------2---------------
D|---4--------------0-------0-------------2-----------------
A|-2--------------2---------------------0-------------------
E|--------------3-------------------------------------------


   G
e|----------------------------------------------------------
B|-------3---3-----------3---3------------------------------
G|---------0---------------0-----2--------------------------
D|-----0---------------0------------------------------------
A|---2---------------2--------------------------------------
E|-3---------------3----------------------------------------


Chorus:

D           A             D             A
A different kind...

Bm          Em(?)         G             A

D           A             D             A

Bm          Em(?)         G             A

C           Bm            A             D
go...



The second verse and chorus follow the same pattern,
up until the bridge, which goes like this:


C                 Bm                     A#(?)
go...  I never...

A                 D


Then just repeat the chorus chords and repeat a few times.  The
question marks are the parts that I'm not too sure about - I've
only been playing for a few months, so if someone can make
suggestions, please do.  And if anyone else has Fisher tabs -
please post!!!    Thanks!!!
     
Добавлено: 19.11.2013
Вам также может быть интересно:
Другие материалы по этой песне:
  • Аккорды и текст

Страница создана 16.11.2013
http://primanota.ru/fisher/different-kind-of-wonerful-chords.htm
Привет, Гость.
Предлагаем пройти революционный курс по гитаре.
Подарок от PrimaNota.Ru, забирай!