PrimaNota.ru - самый крупный в мире бесплатный архив песенных текстов, аккордов, табулатур и нот


Fisher - Closer - аккорды и текст, видео

Регистрация Запомнить меня
Войти через:  Facebook Google Twitter Vk Yandex Mail.ru

Fisher - Closer - аккорды и текст, видео

Печатать
Просмотров: 80
Closer
Fisher
"Closer"
By Fisher
From the Album "Uppers & Downers"
Tabbed by Brian McElwain

 

To match the recorded key, use a Capo on the first fret.


Intro:

e|---7--7--10--7--7--7--5^7--5^7---------------------------------
B|---------------------------------------------------------------
G|---------------------------------------------------------------
D|---------------------------------------------------------------
A|---------------------------------------------------------------
E|---------------------------------------------------------------

 

Verse:

    Em  Dsus2   C   Dsus2
e|--0-----0-----0-----0------------------------------------------
B|--0-----3-----1-----3------------------------------------------
G|--0-----2-----0-----2------------------------------------------
D|--2-----0-----2-----0------------------------------------------
A|--2-----0-----3-----0------------------------------------------
E|--0-----x-----x-----x------------------------------------------

 

End of Verse (1:39):

    G     Bm    A7
e|--3-----2-----0------------------------------------------------
B|--0-----3-----2------------------------------------------------
G|--0-----4-----0------------------------------------------------
D|--0-----4-----2------------------------------------------------
A|--2-----2-----0------------------------------------------------
E|--3-----x-----x------------------------------------------------

 

Chorus:

    Em  Dsus2 Cadd9 Dsus2
e|--0-----0-----0-----0------------------------------------------
B|--0-----3-----3-----3------------------------------------------
G|--0-----2-----0-----2------------------------------------------
D|--2-----0-----2-----0------------------------------------------
A|--2-----0-----3-----0------------------------------------------
E|--0-----x-----x-----x------------------------------------------


End of Chorus:

    G     Bm    C   Dsus2   Em
e|--3-----2-----0-----0-----0------------------------------------
B|--0-----3-----1-----3-----0------------------------------------
G|--0-----4-----0-----2-----0------------------------------------
D|--0-----4-----2-----0-----2------------------------------------
A|--2-----2-----3-----0-----2------------------------------------
E|--3-----x-----x-----x-----0------------------------------------

 

Listen to the song to get the strumming pattern down.  I love this song,
the way it builds up.  Enjoy, and if anyone else has Fisher tabs, please
post!
     
Добавлено: 26.10.2013
Вам также может быть интересно:
Другие материалы по этой песне:
  • Аккорды и текст

Страница создана 26.10.2013
http://primanota.ru/fisher/closer-chords.htm
Привет, Гость.
Предлагаем пройти революционный курс по гитаре.
Подарок от PrimaNota.Ru, забирай!