PrimaNota.ru - самый крупный в мире бесплатный архив песенных текстов, аккордов, табулатур и нот


Fishbone - Ugly - текст песни, бас-таба, видео

Регистрация Запомнить меня
Войти через:  Facebook Google Twitter Vk Yandex Mail.ru

Fishbone - Ugly - текст песни, бас-таба, видео

Печатать
Просмотров: 103
Авторы музыки: Kendall Jones
Авторы текста: Kendall Jones
Song Title: 	"Ugly"
Artist:		Fishbone
Album:		Fishbone [Columbia/CBS 40032]
Written by:	K. Jones
Bassist:	John Norwood Fisher
Bass tablature transcribed by: Me! (Bill Montbleau)


-------------------------------------------------------
------------------------------------------7------------
-1------1-----4-4-4-4---2-1---1-------4-7---7-5-4------
----2------2----------------4---2----5------------7-5--
Ug-ly, ug-ly  lalalala           [over keyboard "noise"]

----------------------------------
-------7--------------------------
-0-4-7---7-5-4-------5-5-5-5------
----------------7-5---------------
[Main riff, play through all verses]


Chorus:
------------------------------------------------------
-------------------------------------------6----------
-------5--5--*4--4*------------------5--5-----7-5-4-7-
-5--5--------------7--7------5---5--------------------
 U, G, L, Y...           You're just...

* - can play as "4 4" (eighth notes) or "4 4 4 4" (16th 
notes following along with the vocals, "you-ain't-got-no").
The bass seems to switch between the two now every now 
and then.


After repeating once or twice, each chorus ends with:
--------------------------------------
--------------------------------------
-----------5--5-----------------------
----5---5-------4-4-4-4--0--0---------

You're just so, ugly     ugly


Bill Montbleau
geezerbill (...at yahoo, dot com)
     
Добавлено: 29.08.2013
Вам также может быть интересно:
Другие материалы по этой песне:
  • Аккорды и текст

Страница создана 29.08.2013
http://primanota.ru/fishbone/ugly-chords.htm
Привет, Гость.
Предлагаем пройти революционный курс по гитаре.
Подарок от PrimaNota.Ru, забирай!