PrimaNota.ru - самый крупный в мире бесплатный архив песенных текстов, аккордов, табулатур и нот


Fishbone - Modern Indstry - бас-таба, видео

Регистрация Запомнить меня
Войти через:  Facebook Google Twitter Vk Yandex Mail.ru

Fishbone - Modern Indstry - бас-таба, видео

Печатать
Просмотров: 81
Song Title: 	"? (Modern Industry)"
Artist:		Fishbone
Album:		Fishbone [Columbia/CBS 40032]
Written by:	K. Jones, D Kahne
Bassist:	John Norwood Fisher
Bass tablature transcribed by: Me! (Bill Montbleau)

"sl\" denotes sliding the note down the bass neck.


Main riff:
-----------------------------------------------
-----------------------------------------------
-------------3-----3-----------------6--5--6-5-
-6--6--6--6-----6-----6--4--4--4--4------------
[Eighth notes through out verses]


Or another way to fret this is:
-------------------------------------------------
-------------------------------------1--0--1--0--
-1--1--1--1--3--1--3--1--------------------------
-------------------------4--4--4--4--------------


Chorus:
---------------------------------------------------------
---------------------------------------------------------
--1------------4-4------1--1---4--4---1------------------
----------------------------------------1--4--4--1-1-1-1-
                 sl\              sl\
"These are the voices...


----------------------------------------------
----------------------------------------------
--1--4-4------1--1---4--4---1-----------------
-------------------------------1-4-4-1-1-1-1--
       sl\              sl\

chorus ends with:
---------------------------------------------------------
---------------------------------------------------------
--1--4-4------1--1---4--4--------------------------------
----------------------------2-2-2-2--2-2-2-2--2-2-2-2--2-
       sl\              sl\


Bill Montbleau
geezerbill (...at yahoo, dot com)

     
Добавлено: 30.09.2013
Другие материалы по этой песне:
  • Аккорды и текст

Страница создана 30.09.2013
http://primanota.ru/fishbone/modern-indstry-chords.htm
Привет, Гость.
Предлагаем пройти революционный курс по гитаре.
Подарок от PrimaNota.Ru, забирай!