PrimaNota.ru - самый крупный в мире бесплатный архив песенных текстов, аккордов, табулатур и нот


Fishbone - Just Allow - текст песни, таба, видео

Регистрация Запомнить меня
Войти через:  Facebook Google Twitter Vk Yandex Mail.ru

Fishbone - Just Allow - текст песни, таба, видео

Печатать
Просмотров: 92
ARTIST:  FISHBONE

ALBUM:  …PRESENTS THE PSYCHOTIC FRIENDS NUTTWERKS

SONG:  ‘JUST ALLOW’

TABBED BY:  C.L.M. (02fishnutter@fuse.net)

THIS IS JUST MY INTERPRETATION OF THE SONG:
Its not written in proper time, I just put the number of times each chord/note is hit (just listen to the song for the timing silly!)


Intro:

E-5/6--4/5-|-5/6--4/5
B-5/6--5/6-|-5/6--5/6
G-6/7--4/5-|-6/7--4/5
D----------|---------
A----------|---------
E----------|---------

Then (still intro)…

E-6-6-6-6-6--5-5-5-5-5-|-6-6-6-6-6--5-5-5-5-5
B-6-6-6-6-6--6-6-6-6-6-|-6-6-6-6-6--6-6-6-6-6
G-7-7-7-7-7--5-5-5-5-5-|-7-7-7-7-7--5-5-5-5-5
D----------------------|---------------------
A----------------------|---------------------
E----------------------|---------------------


Verse(s):

E-x-9--9--9--|-x-x-6-6-6-|---------------------
B-x-9--9--9--|-x-x-6-6-6-|---------------------
G-x-10-10-10-|-x-x-7-7-7-|-x-10-x-10-x-10-x-10-
D------------|-----------|-x-10-x-10-x-10-x-10-    
A------------|-----------|-x-8--x-8--x-8--x-8--
E------------|-----------|---------------------

Play that 3x

Then (still verse(s))…

E-x-9--9--9--|-x-x-6-6-6-|-------------------------
B-x-9--9--9--|-x-x-6-6-6-|-------------------------
G-x-10-10-10-|-x-x-7-7-7-|-------------------------
D------------|-----------|-10-10-10-10-10-10-10-10-
A------------|-----------|-10-10-10-10-10-10-10-10-
E------------|-----------|-8--8--8--8--8--8--8--8--

Bridge to chorus (actually played on bass in song but this is what it would be on guitar):

E------------------
B------------------
G------------------
D------------------
A--6-6---6-6---6^8-
E------8-----8-----


Chorus (the way its played on the album):

Chords:  Bb-A-F--Bb-Ab-F

The lead:

E------------|-----------
B--11--10----|--11^9-----
G---------10-|-------10--
D------------|-----------
A------------|-----------
E------------|-----------
     

Metal Verse/Bridge (when Dirty Walt sings lead):
…”The universe is on my side”…


E--------------------------------------
B----------------------------2-2-2-2---
G----------------------------2-2-2-2---
D-6-6-6-6--8-8-8-8--3-3-3-3--2-2-2-2---
A-6-6-6-6--8-8-8-8--3-3-3-3--0-0-0-0---
E-4-4-4-4--6-6-6-6--1-1-1-1------------

Then (still Metal Verse/Bridge)…

E--------------------------------------
B--------------------------------------
G--------------------------------------
D-6-6-6-6--8-8-8-8--3-3-3-3--1-1-1-1---
A-6-6-6-6--8-8-8-8--3-3-3-3--1-1-1-1---
E-4-4-4-4--6-6-6-6--1-1-1-1------------

Then (still Metal Verse/Bridge)…

E--------------------------------------
B----------------------------2-2-2-2---
G----------------------------2-2-2-2---
D-6-6-6-6--8-8-8-8--3-3-3-3--2-2-2-2---
A-6-6-6-6--8-8-8-8--3-3-3-3--0-0-0-0---
E-4-4-4-4--6-6-6-6--1-1-1-1------------

Then (still Metal Verse/Bridge)…

E--------------------------------------
B--------------------------------------
G-------------------5-5-5-5------------
D-6-6-6-6--5-5-5-5--5-5-5-5--8-8-8-8---
A-6-6-6-6--5-5-5-5--3-3-3-3--8-8-8-8---
E-4-4-4-4--3-3-3-3-----------6-6-6-6---

Then Angelo comes back in on vocals and the music goes back to the ska vibe for bridge/chorus type thing: 

E-6-6-6-6-6--5-5-5-5-5-|-6-6-6-6-6--5-5-5-5-5
B-6-6-6-6-6--6-6-6-6-6-|-6-6-6-6-6--6-6-6-6-6
G-7-7-7-7-7--5-5-5-5-5-|-7-7-7-7-7--5-5-5-5-5
D----------------------|---------------------
A----------------------|---------------------
E----------------------|---------------------


Verse 4:

E-6--5---------------------
B-6--6---------------------
G-7--5-10-x-10-x-10-x-10-x-
D------10-x-10-x-10-x-10-x-
A------8--x-8--x-8--x-8--x-
E--------------------------




Then (still 4th Verse)…

E-5-5-x-6-6-x---------------------
B-6-6-x-6-6-x---------------------
G-5-5-x-7-7-x-10-x-10-x-10-x-10-x-
D-------------10-x-10-x-10-x-10-x-
A-------------8--x-8--x-8--x-8--x-
E---------------------------------

Then (still 4th Verse)…

E-------------------------|----------------------
B-------------------------|----------------------
G-------------------------|-x-10-x-10-x-10-x-10--
D-10-10-10-10-10-10-10-10-|-x-10-x-10-x-10-x-10--
A-10-10-10-10-10-10-10-10-|-x-8--x-8--x-8--x-8---
E-8--8--8--8--8--8--8--8--|----------------------

Then (still 4th Verse)…


E-----------|---------|----------|---------
B-11^10-----|-11^9----|-11^10----|-11^9----
G--------10-|------10-|-------10-|------10-
D-----------|---------|----------|---------
A-----------|---------|----------|---------
E-----------|---------|----------|---------

Chorus Played right before guitar solo:

Metal
E--------------------------------------------------
B--------------------------------------------------
G-11B11B^10--10B10B^11-11B11B----11B9B----11B9B----
D-----------------------------10-------10-------10-
A--------------------------------------------------
E--------------------------------------------------

Solo…I DON’T KNOW…IF YOU CAN FIGURE IT OUT…PLEASE E-MAIL IT TO ME!!!!



OUTRO…ON YOUR GUITAR, TURN ONE VOLUME DOWN TO ZERO AND ONE ALL THE WAY UP AND FLIP THE TOGGLE SWITCH BACK AND FORTH TO GET THE SOUND OF THE GUITAR CUTTING IN AND OUT:


PLAY REAL QUICK:
E-6-6-6-6-6--5-5-5-5-5-|-6-6-6-6-6--5-5-5-5-5
B-6-6-6-6-6--6-6-6-6-6-|-6-6-6-6-6--6-6-6-6-6
G-7-7-7-7-7--5-5-5-5-5-|-7-7-7-7-7--5-5-5-5-5
D----------------------|---------------------
A----------------------|---------------------
E----------------------|---------------------

ANY CORRECTIONS, QUESTIONS, OR COMMENTS, PLEASE SEND THEM MY WAY!

     
Добавлено: 27.07.2013
Другие материалы по этой песне:
  • Аккорды и текст

Страница создана 27.07.2013
http://primanota.ru/fishbone/just-allow-chords.htm
Привет, Гость.
Предлагаем пройти революционный курс по гитаре.
Подарок от PrimaNota.Ru, забирай!