PrimaNota.ru - самый крупный в мире бесплатный архив песенных текстов, аккордов, табулатур и нот


Fishbone - Another Generation - текст песни, бас-таба, видео

Регистрация Запомнить меня
Войти через:  Facebook Google Twitter Vk Yandex Mail.ru

Fishbone - Another Generation - текст песни, бас-таба, видео

Печатать
Просмотров: 91
Song Title: 	"Another Generation"
Artist:		Fishbone
Album:		Fishbone [Columbia/CBS 40032]
Written by:	K. Jones
Bassist:	John Norwood Fisher

Bass tablature transcribed by: Me! (Bill Montbleau)

Special Notation:
P          pop
[pul]      pull-off
[ham]      hammer or slide up to next fret


---------------------|--------------------------
-----------2---2-----|------------3-------------
-------------------3-|-----3-3------------------
---------------------|-5-5-----3--------3-0--3--
 [intro]                          P    [pul]



Repeat this last bar a number of times.  Then 
change to:
-----------------------------------------------
-3--2-----3-2-------------3--2-----3-2---------
-------5-------3----------------5-------3------
------------------3------------------------3---


Chorus:                           
---------2---------|----------------|---------2-------
-------2---2-------|----------------|-------2---------
---0-3-------3-0---|--[repeat...]---|---0-3-----------
-1-----------------|----------------|-1---------------
[walking bass line]                  [last part of chorus]


After chorus: (triplet feel)
----------------------------------------------
-2-3--3-2-2-----------------2-2---------------
------------5-5-3-3-0-0-3-3-----3-3-----------
----------------------------------------------
[ham]

In the instrumental section, it later goes up a fret:
----------------------------------------------
-4-4--4-3-3-----------------3-3---------------
------------6-6-4-4-----4-4-----4-4-----------
--------------------6-6-----------------------

Ending:
----------------------------------------------
--2---2---------------------------------------
----------3---0-------------------------------
----------------------------------------------


Bill Montbleau
geezerbill (...at yahoo, dot com)
     
Добавлено: 15.07.2013
Другие материалы по этой песне:
  • Аккорды и текст

Страница создана 25.03.2012
http://primanota.ru/fishbone/another-generation-chords.htm
Привет, Гость.
Предлагаем пройти революционный курс по гитаре.
Подарок от PrimaNota.Ru, забирай!