PrimaNota.ru - самый крупный в мире бесплатный архив песенных текстов, аккордов, табулатур и нот


Fish Are Glowing - Destination Home - аккорды и текст, видео

Регистрация Запомнить меня
Войти через:  Facebook Google Twitter Vk Yandex Mail.ru

Fish Are Glowing - Destination Home - аккорды и текст, видео

Печатать
Просмотров: 95
Уроки эстрадного вокала в Санкт-Петербурге
Destination Home
Fish Are Glowing
Song: Destination: Home
Band: The Fish are Glowing
Guitarist: Mad Dog Monte
my email: shooby7@hotmail.com

This song rocks! It's pretty easy to play, also. This tab s all my own work, 
so please enjoy.

Riff:                          X2                          X1
E|------------------------------|----------------------------
B|------------------------------|----------------------------
G|------------------------------|----------------------------
D|------------------------------|----------------------------
A|------------------------------|----------------------------
E| -000000-444444-555555-000000-|-000000-444444-777777-555555-

					     X1
E|-----------------------------------
B|-----------------------------------
G|-----------------------------------
D|-----------------------------------
A|-----------------------------------
E| -000000-444444------5--4--0--4--0-


For the verse, just repeat but add the A string on the seventh fret.
Verse:                        X2                          X1
E|-----------------------------|----------------------------
B|-----------------------------|----------------------------
G|-----------------------------|----------------------------
D|-----------------------------|----------------------------
A|-777777-777777-777777-777777-|-777777-777777-777777-777777
E|-000000-444444-555555-000000-|-000000-444444-777777-555555


					 X1
E|----------------------------------
B|----------------------------------
G|----------------------------------
D|----------------------------------
A|-777777-777777------7--7--7--7--7-
E|-000000-444444------5--4--0--4--0-


For the chorus, an easy chord progression

Chorus:       E              G#             A              E  X3
E|--0-0-0-0-0-0----4-4-4-4-4-4----5-5-5-5-5-5----0-0-0-0-0-0
B|--0-0-0-0-0-0----4-4-4-4-4-4----5-5-5-5-5-5----0-0-0-0-0-0
G|--1-1-1-1-1-1----5-5-5-5-5-5----6-6-6-6-6-6----1-1-1-1-1-1
D|--2-2-2-2-2-2----6-6-6-6-6-6----7-7-7-7-7-7----2-2-2-2-2-2
A|--2-2-2-2-2-2----6-6-6-6-6-6----7-7-7-7-7-7----2-2-2-2-2-2
E|--0-0-0-0-0-0----4-4-4-4-4-4----5-5-5-5-5-5----0-0-0-0-0-0






After three times, go to this:

                        D         G    Bm     E          G     Bm    E
E|-2-2-2-2-2-2-2-2-2-2-2----1-1-1-1---0-2---0-0----1-1-1-1---0-2---0-0
B|-3-3-3-3-3-3-3-3-3-3-3----0-0-0-0---3-3---0-0----0-0-0-0---3-3---0-0
G|-2-2-2-2-2-2-2-2-2-2-2----0-0-0-0---4-4---1-1----0-0-0-0---4-4---1-1
D|-0-0-0-0-0-0-0-0-0-0-0----0-0-0-0---4-4---2-2----0-0-0-0---4-4---2-2
A|--------------------------2-2-2-2---0-2---2-2----2-2-2-2---0-2---2-2
E|--------------------------3-3-3-3---0-2---0-0----3-3-3-3---0-2---0-0


The bridge is a little higher up the fretboard...

Bridge 1:                                                    X4
E|--9--9--9--9--9--9---5-5-5-5-5-5---7-7-7-7-7-7-7-7-7-7-7-7
B|--9--9--9--9--9--9---5-5-5-5-5-5---7-7-7-7-7-7-7-7-7-7-7-7
G|-11-11-11-11-11-11---7-7-7-7-7-7---9-9-9-9-9-9-9-9-9-9-9-9
D|----------------------------------------------------------
A|----------------------------------------------------------
E|----------------------------------------------------------

                     *Distortion on*
Bridge 2:                                                   X2
E|--9--9--9--9--9--9---5-5-5-5-5-5---7-7-7-7-7-7-7-7-7-7-7-7
B|--9--9--9--9--9--9---5-5-5-5-5-5---7-7-7-7-7-7-7-7-7-7-7-7
G|-11-11-11-11-11-11---7-7-7-7-7-7---9-9-9-9-9-9-9-9-9-9-9-9
D|-11-11-11-11-11-11---7-7-7-7-7-7---9-9-9-9-9-9-9-9-9-9-9-9
A|--9--9--9--9--9--9---5-5-5-5-5-5---7-7-7-7-7-7-7-7-7-7-7-7
E|--9--9--9--9--9--9---5-5-5-5-5-5---7-7-7-7-7-7-7-7-7-7-7-7
                                                                   X1
E|--9--9--9--9--9--9---10-10-10-10-10-10---7-7-7-7-7-7-7-7-7-7-7-7
B|--9--9--9--9--9--9---10-10-10-10-10-10---7-7-7-7-7-7-7-7-7-7-7-7
G|-11-11-11-11-11-11---12-12-12-12-12-12---9-9-9-9-9-9-9-9-9-9-9-9
D|-11-11-11-11-11-11---12-12-12-12-12-12---9-9-9-9-9-9-9-9-9-9-9-9
A|--9--9--9--9--9--9---10-10-10-10-10-10---7-7-7-7-7-7-7-7-7-7-7-7
E|--9--9--9--9--9--9---10-10-10-10-10-10---7-7-7-7-7-7-7-7-7-7-7-7
                                                             X1
E|--9--9--9--9--9--9---5-5-5-5-5-5---0-0-0-0-0-0-0-0-0-0-0-0
B|--9--9--9--9--9--9---5-5-5-5-5-5---0-0-0-0-0-0-0-0-0-0-0-0
G|-11-11-11-11-11-11---7-7-7-7-7-7---1-1-1-1-1-1-1-1-1-1-1-1
D|-11-11-11-11-11-11---7-7-7-7-7-7---2-2-2-2-2-2-2-2-2-2-2-2
A|--9--9--9--9--9--9---5-5-5-5-5-5---2-2-2-2-2-2-2-2-2-2-2-2
E|--9--9--9--9--9--9---5-5-5-5-5-5---0-0-0-0-0-0-0-0-0-0-0-0

The song goes like this:
Riff
Verse
Chorus
Riff
Verse
Chorus
Bridge1
Bridge2
Chorus

Keep Playing!
     
Добавлено: 05.06.2013
Другие материалы по этой песне:
  • Аккорды и текст

Страница создана 05.06.2013
http://primanota.ru/fish-are-glowing/destination-home-chords.htm
Привет, Гость.
Предлагаем пройти революционный курс по гитаре.
Подарок от PrimaNota.Ru, забирай!