PrimaNota.ru - самый крупный в мире бесплатный архив песенных текстов, аккордов, табулатур и нот


Fischerspooner - Emerge - текст песни, таба, видео

Регистрация Запомнить меня
Войти через:  Facebook Google Twitter Vk Yandex Mail.ru

Fischerspooner - Emerge - текст песни, таба, видео

Печатать
Просмотров: 130
Авторы музыки: Warren Fischer, Fischerspooner
Авторы текста: Casey Spooner
http://www.fischerspooner.com/

This is the main techno riff that goes through out most of the song which is playable on 
with a lot bass and distortion.
First tab.


[00:01-00:49]
E|-----------------------------------|
B|-----------------------------------|
G|-----------------------------------|
D|-----------------------------------|x30
A|-----------------------------------|
E|-2-2-2-2-2-7-7-7---2-2-2-2-2-7-7-7-|

[00:53-01:05]
E|--------------------------------------------------------------------|
B|--------------------------------------------------------------------|
G|--------------------------------------------------------------------|x2
D|--------------------------------------------------------------------|
A|--------------------------------------------------------------3-3-3-|
E|-2-2-2-2-2-7-7-7-7-5-5-5-5-0-0-0----2-2-2-2-2-7-7-7-7-5-5-5-5-------|

[01:06-01:31]
E|--------------------------------------------------------------------|
B|--------------------------------------------------------------------|
G|--------------------------------------------------------------------|x2
D|--------------------------------------------------------------------|
A|--------------------------------------------------------------3-3-3-|
E|-2-2-2-2-2-7-7-7-7-5-5-5-5-0-0-0----2-2-2-2-2-7-7-7-7-5-5-5-5-------|
   . . . . . . . . . . . . . . . .    . . . . . . . . . . . . . . . .
   {  P  A  L  M -- M  U  T  E  D  } {  P  A  L  M -- M  U  T  E  D  }

Sweet pump up song.
Hope this is helpful.
-David
Добавлено: 05.03.2012
Другие материалы по этой песне:
  • Аккорды и текст

Страница создана 05.03.2012
http://primanota.ru/fischerspooner/emerge-chords.htm
Привет, Гость.
Предлагаем пройти революционный курс по гитаре.
Подарок от PrimaNota.Ru, забирай!