PrimaNota.ru - самый крупный в мире бесплатный архив песенных текстов, аккордов, табулатур и нот


Fischer Kyle - Sunrise - таба, видео

Регистрация Запомнить меня
Войти через:  Facebook Google Twitter Vk Yandex Mail.ru

Fischer Kyle - Sunrise - таба, видео

Печатать
Просмотров: 85
Song: Sunrise
Album: Turn The Tide


Verse:
gtr. 1
------------------------------------------------------------------
---1---1---0---0---1---1---3---3---1---1---3--3----1---1---1---1--
---0-0-----0-0-----0-0-----0-0-----2-2-----0-0-----0-0-----0-0----
------------------------------------------------------------------
-3------2-------0-------------------------------3-------3---------
------------------------3-------1-------3-------------------------

gtr.2
--------------------------------------------------------------
-1------0-------1-------3-------1-------3-------1-------1-----
--------------------------------------------------------------
--------------------------------------------------------------
-3------2-------0-------------------------------3-------3-----
------------------------3-------1-------3---------------------


Chorus:
gtr. 1
----------------------------------------------
---1-----0-----1-----3-----1-----0----5----3--
---0-----0-----0-----0-----0-----0----0-------
----------------------------------------------
-3----2-----0-----------3-----2---------------
------------------3-----------------5---1--3--

_________________________________________________________________
     
Добавлено: 28.11.2013
Другие материалы по этой песне:
  • Аккорды и текст

Страница создана 28.11.2013
http://primanota.ru/fischer-kyle/sunrise-chords.htm
Привет, Гость.
Предлагаем пройти революционный курс по гитаре.
Подарок от PrimaNota.Ru, забирай!