PrimaNota.ru - самый крупный в мире бесплатный архив песенных текстов, аккордов, табулатур и нот


Fischer Kyle - Little Baby - таба, видео

Регистрация Запомнить меня
Войти через:  Facebook Google Twitter Vk Yandex Mail.ru

Fischer Kyle - Little Baby - таба, видео

Печатать
Просмотров: 96
Kyle Fischer
Little Baby

Verse:
Gtr. 1
--3---3p2---0---3p2---0---3p2---3---
--3---3-----3---3-----1---3-----3---
--0---2-----0---2-----0---2-----0---
--0---------2---------2---------0---
--2---------2---------3---------2---
--3---------0-------------------3---


Gtr. 2
-5/7-3--5/7-3-        -3/5-3--3/5-3--5/7-3---
--------------        -----------------------
-------------- X1     ----------------------- X3
--------------        -----------------------
--------------        -----------------------
--------------        -----------------------


Chorus:

Gtt. 1
--3---0---0---2---
--3---1---3---3---
--0---0---0---2---
--0---2---2---0---
--2---3---2-------
--3-------0-------


--3---0-3---3-3/5---3-5/7---
----------------------------
----------------------------
----------------------------
----------------------------
----------------------------

_________________________________________________________________
     
Добавлено: 01.12.2013
Вам также может быть интересно:
Другие материалы по этой песне:
  • Аккорды и текст

Страница создана 02.11.2013
http://primanota.ru/fischer-kyle/little-baby-chords.htm
Привет, Гость.
Предлагаем пройти революционный курс по гитаре.
Подарок от PrimaNota.Ru, забирай!