PrimaNota.ru - самый крупный в мире бесплатный архив песенных текстов, аккордов, табулатур и нот


Fischer Kyle - Better Days - аккорды и текст, видео

Регистрация Запомнить меня
Войти через:  Facebook Google Twitter Vk Yandex Mail.ru

Fischer Kyle - Better Days - аккорды и текст, видео

Печатать
Просмотров: 63
Better Days
Fischer Kyle
Artist: Kyle Fischer
Song: Better Days
Album: Turn The Tide

Intro:
-------------x----
-------------x----
-------------x----
-----2-2-2-2-x----  -4X
-----2-2-2-2-x----
-3-2-0-0-0-0-x----

Verse:
---------------x----------------x------
---------------x----------------x------
---------------x------0---------x------
-----2-2-2-2-2-x-2-2--0-0-0-0-0-x-0-0--  -8X
-----2-2-2-2-2-x-2-2--2-2-2-2-2-x-2-2--
-3-2-0-0-0-0-0-x-0-0--3-3-3-3-3-x-3-3--

Bridge:
-------------x----
-------------x----
-------------x----
-----2-2-2-2-x----  -4X (same as intro)
-----2-2-2-2-x----
-3-2-0-0-0-0-x----

Chorus:
-------------------------0-0-0-0-0-0-0-0-0-0--
-------------------------1-1-1-1-1-1-1-1-1-1--
-------------------------0-0-0-0-0-0-0-0-0-0--
-----2-2-2-2-2-2-2-2-2-2-2-2-2-2-2-2-2-2-2-2--
-----2-2-2-2-2-2-2-2-2-2-3-3-3-3-3-3-3-3-3-3--
-3-2-0-0-0-0-0-0-0-0-0-0----------------------

--3-3-3-3-3-3-3-3-3-3-2-2-2-2-2-2--
--3-3-3-3-3-3-3-3-3-3-3-3-3-3-3-3--
--0-0-0-0-0-0-0-0-0-0-2-2-2-2-2-2--
--0-0-0-0-0-0-0-0-0-0--------------
--2-2-2-2-2-2-2-2-2-2--------------
--3-3-3-3-3-3-3-3-3-3--------------



Song Order:

Intro;
Verse;
Bridge;
Chorus;
Bridge;
Verse;
Bridge;
Chorus;
Bridge;
Chorus;
Bridge;
Verse;
Bridge;
Chorus;
Bridge;
Chorus;
Bridge;

Thats pretty much it for now. I will make an update when I get the lyrics 
and the solo. Other than that this is a dead on version of the song.

_________________________________________________________________
     
Добавлено: 21.11.2013
Другие материалы по этой песне:
  • Аккорды и текст

Страница создана 21.11.2013
http://primanota.ru/fischer-kyle/better-days-chords.htm
Привет, Гость.
Предлагаем пройти революционный курс по гитаре.
Подарок от PrimaNota.Ru, забирай!