PrimaNota.ru - самый крупный в мире бесплатный архив песенных текстов, аккордов, табулатур и нот


First Signs Of Frost - Through The Exterior - таба, видео

Регистрация Запомнить меня
Войти через:  Facebook Google Twitter Vk Yandex Mail.ru

First Signs Of Frost - Through The Exterior - таба, видео

Печатать
Просмотров: 87
-------------------------------------------------------------------------------
                             THROUGH THE EXTERIOR - First Signs Of Frost
-------------------------------------------------------------------------------
Composed & tabbed by: Owen Hughes-Holland
Email: owen.fsof@gmail.com

Tuning: C Standard

C,F,Bb,Eb,G,c



Intro & Chorus

          PM-----|      PM|  PM|         PM|         PM-----|

C|--------------------------------0-0h2--------------------------------------|
G|---------------------------------------------------------------------------|
Eb---------------------------0h4---------0-0h4----------------2--2-----------|
Bb-----------------4--4------------------------------------------------------|
F|---5----5-5-5-5-------5-5---------------------5----5-5-5-5-----------------|
C|---3----3-3-3-3-------3-3---------------------3----3-3-3-3-----------------|

         PM|             PM-----|      PM|               PM-------|   PM|

C|---------------------------------------------------------------------------|
G|---------------------------------------------7-----------------------------|
Eb--------------------------------7--7------/9---9----------------- 7--------|
Bb-----4--------7------------------------------------------------------------|
F|-----------4------9----9-9-9-9-------9-9----------9----9-9-9-9-9-----------|
C|---3---3----------7----7-7-7-7-------7-7----------7----7-7-7-7-7----7------|


C|---------------------------------------------------------------------------|
G|---------------------------------------------------------------------------|
Eb---7-----6----7------------------------------------------------------------|
Bb---------------------------------------------------------------------------|
F|---------------------------------------------------------------------------|
C|-----7-7---5---------------------------------------------------------------|


Fill before 1st verse

                                 PM|

C|---------------------------------------------------------------7-----------|
G|----------------------------------------7-------------------10-------------|
Eb------------------------------------/9-------------------------------------|
Bb--------------------------7------------------------------------------------|
F|---5--------------5-------4------------------------------------------------|
C|---3--------------3---x-3------0-2 ----------------------------------------|


1st Verse "In this crowded room..."

C|-----------------------------0-----------------|---------------------------|
G|---------------3-------------------------------|---------------------------|
Eb---------0----------0--------------0-----------|---------------------------|
Bb------4-----4----------4--------------4--------|----------repeat-----------|
F|---2-------------2--------2-----2--------2-----|---------------------------|
C|-----------------------------------------------|---------------------------|

C|-----------------------------0----------------------------2-------------0--|
G|---------------3---------------------------------------------------3-------|
Eb---------2----------2--------------2----------------0-----------0----0-----|
Bb------4-----4----------4--------------4----------4-----4-----4-------------|
F|---0-------------0--------0-----0--------0---------------------------------|
C|----------------------------------------------0----------------------------|


C|-----------------|
G|------3----------|
Eb---------0-------|
Bb---4--------4----|
F|-----------------|
C|-----------------|

"But you take it all in your stride..."

C|------------------------------0------------------------------------------0-|
G|--------------3------------------------------------------3-----------------|
Eb--------0---------------0-----------0--------------2------------2----------|
Bb-----4-----4---------4-----4-----------4--------4-----4------------4-------|
F|--2---------------2--------------2--------2--0---------------0--------0----|
C|---------------------------------------------------------------------------|

C|----------------------------2---------------0------------------------------|
G|--------------------------------------3-----------3------------------------|
Eb-----2----------------0------------0-----0-----------0------------0--------|
Bb--------4----------4-----4------4--------------4--------4------4-----4-----|
F|--0--------0---------------------------------------------------------------|
C|----------------0-------------------------------------------0--------------|

C|--2----------------------------------7-----------|
G|-----3------------------7------------7-----------|
Eb--------0---------9--------9---------9-----------|
Bb---------------8-----8--------8------8-----------|
F|-----------/9--------------------9---9-----------|
C|-------------------------------------------------|

Fill leading into chorus

C|--------------------------------|
G|--------------------------------|
Eb--------------------------------|
Bb--------------------------------|
F|--------------------------------|
C|--2---2-----X-X-2---2---0-------|


            2nd Verse "Open to attack..."

    PM--|     PM-------------------------------|        PM---------------

C|---------|-----------------------------------------------------------------|
G|---------|-----------------------------------------3-----------------------|
Eb---------|---------------------------------------0-------------------------|
Bb---------|--4--4---4-4-4-4--4---4-4--4---4-4---4------4--4---4-4-4-4--4----|
F|--7--7---|--2--2---2-2-2-2--2---2-2--2---2-2-2--------2--2---2-2-2-2--2----|
C|--5--5---|-----------------------------------------------------------------|

    --------------|   PM|   PM---------------------------------|

C|-----------------------0---------------------------------------------------|
G|------------------3--------------------------------------------------------|
Eb---------------------------------------------------------------------------|
Bb--4-4--4---4-4------------2--2---2-2-2-2--2---2-2--2--2-2-2-2-2------------|
F|--2-2--2---2-2-2----0-----0--0---0-0-0-0--0---0-0--0--0-0-0-0-0------------|
C|---------------------------------------------------------------------------|

    PM---------------------------------|

C|---------------------------------------------------------------------------|
G|---------------------------------------------------------------------------|
Eb--------------------------------------11\----------------------------------|
Bb--------------------------------------9-\----------------------------------|
F|--------------------------------------10\----------------------------------|
C|--0--0---0-0-0-0--0---0-0--0--0-0-0-0--------------------------------------|


    PM-----------------------------|       PM-----------------------------|

C|---------------------------------------------------------------------------|
G|--------------------------------------3------------------------------------|
Eb------------------------------------0--------------------------------------|
Bb--4-4---4-4-4-4--4--4--4-4--4-4---4------2--2---2-2-2-2--2---2-2--2--------|
F|--2-2---2-2-2-2--2--2--2-2--2-2-2--------0--0---0-0-0-0--0---0-0--0--0-0---|
C|---------------------------------------------------------------------------|

        PM|   PM---------------------|

C|---------0-----------------------------------------------------------------|
G|----3-------------------------------------------/7-7---7-7-7-7--7--7-7--7--|
Eb------------------------------------------------/9-9---9-9-9-9--9--9-9--9--|
Bb------------------------------------------------/8-8---8-8-8-8--8--8-8--8--|
F|--0---0-----------------------------------------/9-9---9-9-9-9--9--9-9--9--|
C|------------0--0---0-0-0-0--0---0-0--0--0-0-0-0----------------------------|


C|-----------------|
G|--7-7-7-7--7\----|
Eb--9-9-9-9--9\----|
Bb--8-8-8-8--8\----|
F|--9-9-9-9--9\----|
C|-----------------|

"You owe it to yourself..."

C|--5-5-5-5-5-5-5-5-5-5-5-5-5-5-5-3\-5-5-5-5-5-5-5-5-----------3-------------|
G|--7-7-7-7-7-7-7-7-7-7-7-7-7-7-7-5\-7-7-7-7-7-7-7-7---7p0-3h5---5-----------|
Eb--0-0-0-0-0-0-0-0-0-0-0-0-0-0-0--------------------0-----------------------|
Bb---------------------------------------------------------------------------|
F|---------------------------------------------------------------------------|
C|---------------------------------------------------------------------------|


C|-/5-5-5-5-5-5-5-5-5-5-5-5-5-5-5-5-5-5-5-5-5-5-5-5-5-5-5-5-5-5-5-5-5--------|
G|-/7-7-7-7-7-7-7-7-7-7-7-7-7-7-7-7-7-7-7-7-7-7-7-7-7-7-7-7-7-7-7-7-7--------|
Eb----0-0-0-0-0-0-0-0-0-0-0-0-0-0-0-0-6-6-6-6-6-6-6-6-6-6-6-6-7-7-7-7--------|
Bb---------------------------------------------------------------------------|
F|---------------------------------------------------------------------------|
C|---------------------------------------------------------------------------|

Clean stabs before heavy outro

C|--5-5-5---5---5-5-5---5--5--5---3--3---3----5-5-5---5---5-5-5---5-5-5---5--|
G|--7-7-7---7---7-7-7---7--7--7---5--5---5----7-7-7---7---7-7-7---7-7-7---7--|
Eb--0-0-0---0---0-0-0---0--0--0---0--0---0----0-0-0---0---0-0-0---6-6-6---6--|
Bb---------------------------------------------------------------------------|
F|---------------------------------------------------------------------------|
C|---------------------------------------------------------------------------|

Outro

          PM-----|   PM---|       PM---|        PM---|     PM----|   PM-|

C|---------------------------------------------------------------------------|
G|---------------------------------------------------------------------------|
Eb--0-0-0----------0--------0-0-0-------0--0--0------------------------------|
Bb--4-4-4----------4--------4-4-4-------4--4--4-------2--2--------2----------|
F|--------5-5-5-5----5-5-5--------5-5-5---------5-5-5------------------------|
C|--------3-3-3-3----3-3-3--------3-3-3---------3-3-3------3-3--3----3-3-----|

          PM-----|   PM---|       PM---|         PM---|     PM----|   

C|---------------------------------------------------------------------------|
G|---------------------------------------------------------------------------|
Eb--0-0-0----------0--------0-0-0--------------9-------------------2---------|
Bb--4-4-4----------4--------4-4-4-----------7----------7--7-----------4------|
F|--------5-5-5-5----5-5-5--------5-5-5-/9-------------9--9------------------|
C|--------3-3-3-3----3-3-3--------3-3-3----------2-2-2------0-0--0-----------|


Stabs "Now you feel..."

                                                           PM---|

C|---------------------------------------------------------------------------|
G|---------------------------------------------------------------------------|
Eb--0-0-0----------0--------0-0-0-------0--0--0------------------------------|
Bb--4-4-4----------4--------4-4-4-------4--4--4-------2--2-------2-----------|
F|---------------------------------------------------------------------------|
C|---------------------------------------------------------3-3-3---3---------|

                                                            PM---|

C|---------------------------------------------------------------------------|
G|---------------------------------------------------------------------------|
Eb--0-0-0----------0--------0-0-0---------------------------------2----------|
Bb--4-4-4----------4--------4-4-4-------7--7--7\------/7--7----------4-------|
F|--------------------------------------9--9--9\------/9--9------------------|
C|----------------------------------------------------------0-0-0------------|





************************************

| /   slide up
| \   slide down
| h   hammer-on
| p   pull-off
| ~   vibrato
| +   harmonic
| x   Mute note
| PM  Palm mute
| b   Bend
| pb  Pre-bend
| br  Bend release
| pbr Pre-bend release
| brb Bend release bend

************************************
Добавлено: 28.07.2012
Другие материалы по этой песне:

Страница создана 09.06.2012
http://primanota.ru/first-signs-of-frost/through-the-exterior-chords.htm
Привет, Гость.
Предлагаем пройти революционный курс по гитаре.
Подарок от PrimaNota.Ru, забирай!