PrimaNota.ru - самый крупный в мире бесплатный архив песенных текстов, аккордов, табулатур и нот


First Blood - Victim - таба, видео

Регистрация Запомнить меня
Войти через:  Facebook Google Twitter Vk Yandex Mail.ru

First Blood - Victim - таба, видео

Печатать
Просмотров: 111
-------------------------------------------------------------------------------
                          Victim - First Blood
-------------------------------------------------------------------------------

ARTIST   : First Blood
SONG     : Victim
ALBUM    : Killafornia
TABBED BY: h8urlife
TUNING   : C G C F A D


  Guitar 1
D|-----------------------------------------------------------------|
A|-----------------------------------------------------------------|
F|-------7---6---7-------7---6---3-------7---6---7-----------------|
C|-----------------------------------------------------------------|
G|-------5---4---5-------5---4---1-------5---4---5---6---5---3---1-|
C|-0-000---0---0---0-000---0---0---0-000---0---0---0-6-0-5-0-3-0-1-|
 | . ...   .   .   . ...   .   .   . ...   .   .   .   .   .   .
 |
 |
 |Guitar 2
D|------------------------------------------------------------------|
A|------------------------------------------------------------------|
F|------10---9---10-----10---9---6------10---9---10-----------------|
C|------------------------------------------------------------------|
G|-------8---7---8-------8---7---4-------8---7---8----6---5---3---1-|
C|-0-000---0---0---0-000---0---0---0-000---0---0----0-6-0-5-0-3-0-1-|
   . ...   .   .   . ...   .   .   . ...   .   .    .   .   .   .

  Guitar 1                  (0:22)
D|-----------------------------------------------------------------|
A|-----------------------------------------------------------------|
F|-------7---6---7-------7---6---3-------7---6---7-----------------|
C|-----------------------------------------------------------------|
G|-------5---4---5-------5---4---1-------5---4---5---6---5---3---1-|
C|-0-0-0---0---0---0-0-0---0---0---0-0-0---0---0---0-6-0-5-0-3-0-1-|
 | . . .   .   .   . . .   .   .   . . .   .   .   .   .   .   .
 |
 |
 |Guitar 2
D|------------------------------------------------------------------|
A|------------------------------------------------------------------|
F|------10---9---10-----10---9---6------10---9---10-----------------|
C|------------------------------------------------------------------|
G|-------8---7---8-------8---7---4-------8---7---8----6---5---3---1-|
C|-0-0-0---0---0---0-0-0---0---0---0-0-0---0---0----0-6-0-5-0-3-0-1-|
   . . .   .   .   . . .   .   .   . . .   .   .    .   .   .   .

                 (0:36)
D|------------------------------------|
A|------------------------------------|
F|------------------------------------|
C|----------1-----------------1-------|
G|-0--1--3--1--3--1--0--1--3--1-4-3-1-|
C|-0--1--3-----3--1--0--1--3----4-3-1-|
   .  .  .     .  .  .  .  .    . . .


                       (1:08)
D|--------------------------------------------------|
A|--------------------------------------------------|
F|------7-8-5~---5-8-7~--10~-------7-8-5~-----------|
C|-0~-------------------------0~------------------8-|
G|-0~---5-6-3~---3-6-5~---8~--0~---5-6-3~---55555-6-|
C|-0~-------------------------0~--------------------|
                                            .....

                       (1:16)
D|-----------------------------------------------------|
A|-----------------------------------------------------|
F|-----------------------------------------------------|
C|-------7-5-7-----------------------------------------|
G|-------5-3-5-------5-3-5-------3-1-3/1---------------|
C|-0-000-------0-000-5-3-5-0-000-3-1-3/1-0-0-0-0-0-0-0-|
   . ...       . ...       . ...         . . . . . . .

D|--------------------------------------------------|
A|--------------------------------------------------|
F|--------------------------------------------------|
C|------7-5-7---------------------------------------|
G|---0--5-3-5---0--5-3-5---0--3-1-3/1---------------|
C|-0-0--------0-0--5-3-5-0-0--3-1-3/1-0-0-0-0-0-0-0-|
   .          .          .          . . . . . . . .

                                                (Breakdown)
D|--------------------------------------------------------------------------------|
A|--------------------------------------------------------------------------------|
F|--------------------------------------------------------------------------------|
C|--------------------------------------------------------------------------------|
G|-000--00-0-0-1-0-0-0-0-0--000-0-0-0-0-1-0-0-0-0-0--000--00-0-0-1-0-0-0-0-0--000-|
C|-000--00-0-0-1-0-0-0-0-0--000-0-0-0-0-1-0-0-0-0-0--000--00-0-0-1-0-0-0-0-0--000-|
   ...  .. . .   . . . . .  ... . . . .   . . . . .  ...  .. . .   . . . . .
--------------------|
--------------------|
--------------------|
--------------------|
0-0-0-0-1-0-0-1-0-0-|
0-0-0-0-1-0-0-1-0-0-|


First Blood rulez!!!
Добавлено: 24.02.2012
Другие материалы по этой песне:

Страница создана 24.02.2012
http://primanota.ru/first-blood/victim-chords.htm
Привет, Гость.
Предлагаем пройти революционный курс по гитаре.
Подарок от PrimaNota.Ru, забирай!