PrimaNota.ru - самый крупный в мире бесплатный архив песенных текстов, аккордов, табулатур и нот


First Blood - Suffocate - таба, видео

Регистрация Запомнить меня
Войти через:  Facebook Google Twitter Vk Yandex Mail.ru

First Blood - Suffocate - таба, видео

Печатать
Просмотров: 125
First Blood - Suffocate
Album       - Killafornia
tabbed by   - h8urlife

Tuning: C,G,C,F,A,D


Intro:



|-------------------------------------------------------|
|-------------------------------------------------------|
|-------------------------------------------------------|
|-5-----------------------------------------------------|
|-3-0-0-1-0-0-4-0-0-3-0-0-1-3-1--0--1--4--3--0-1-3-1-0~-|
|---0-0-1-0-0-4-0-0-3-0-0-1-3-1--0--1--4--3--0-1-3-1-0~-|



|------------------------------------------|----------|
|------------------------------------------|----------|
|------------------------------------------|----------|
|-----------/8-8-8-8-8---------------------|----------|
|-0-0-0-0-0-/6-6-6-6-6-1-1-1-1-1-3-3-3-3-3-|-3--4-3-1-|
|-0-0-0-0-0------------1-1-1-1-1-3-3-3-3-3-|-3--4-3-1-|



|------------------------------------------------------|
|------------------------------------------------------|
|------------------------------------------------------|
|------------------------------------------------------|
|-1-3-0--0-0-0-0-1-3--3-4--3-1--1-3-0--0-0-0-0-1--4--3-|
|-1-3-0--0-0-0-0-1-3--3-4--3-1--1-3-0--0-0-0-0-1--4--3-|



Then: (1:03)



|----------------------------------------------------|
|----------------------------------------------------|
|----------------------------------------------------|
|----------------------------------------------------|
|-1-3-0--00-00--1-3--3-4--3-1--1-3-0--00-00--1--4--3-|
|-1-3-0--00-00--1-3--3-4--3-1--1-3-0--00-00--1--4--3-|



|---------------------------------------------------------------|
|---------------------------------------------------------------|
|---------------------------------------------------------------|
|---------------------------------------------------------------|
|-x\\\\--4-3-1-0-1-0-00-00-00-0-4-3--4-3-1-0-1-0-000000-4-0-0-1-|
|--------4-3-1-0-1-0-00-00-00-0-4-3--4-3-1-0-1-0-000000-4-0-0-1-|



|----------------------------------------------------|
|----------------------------------------------------|
|----------------------------------------------------|
|----------------------------------------------------|
|-4-3-1-0-1-0-00-00-00-0-4-3--0-0-0-1-1-3-3-4--4-3-1-|
|-4-3-1-0-1-0-00-00-00-0-4-3--0-0-0-1-1-3-3-4--4-3-1-|



|-----------------------------------------------|
|-----------------------------------------------|
|-----------------------------------------------|
|-----------------------------------------------|
|-00000000000~-00-00-00000000000-0--0-0-4-0-0-1-|
|-00000000000~-00-00-00000000000-0--0-0-4-0-0-1-|




|--------------------------------------------------------|
|--------------------------------------------------------|
|--------------------------------------------------------|
|--------------------------------------------------------|
|-00-00-00-00-00-00-001-001--00-00-00-00-4-3-1-0-4-3-1-0-|
|-00-00-00-00-00-00-001-001--00-00-00-00-4-3-1-0-4-3-1-0-|



First fucking Blood!!!
Добавлено: 20.05.2012
Вам также может быть интересно:
Другие материалы по этой песне:

Страница создана 20.05.2012
http://primanota.ru/first-blood/suffocate-chords.htm
Привет, Гость.
Предлагаем пройти революционный курс по гитаре.
Подарок от PrimaNota.Ru, забирай!