PrimaNota.ru - самый крупный в мире бесплатный архив песенных текстов, аккордов, табулатур и нот


First Blood - Armageddon - таба, видео

Регистрация Запомнить меня
Войти через:  Facebook Google Twitter Vk Yandex Mail.ru

First Blood - Armageddon - таба, видео

Печатать
Просмотров: 140
First Blood - Armageddon
Album       - Killafornia
tabbed by   - h8urlife

Tuning: C,G,C,F,A,D


Intro:



|----------------------------------|
|----------------------------------|
|----------------------------------|
|----------------------------------|
|-0--0--0--0--0-0--0--0--0--0--4-3-|
|-0--0--0--0--0-0--0--0--0--0--4-3-|



Then:



|-----------------------------------------------|-------------------------|
|-----------------------------------------------|-------------------------|
|-----------------------------------------------|-------------------------|
|-----------------------------------------------|-------------------------|
|-x\\\\\--0--0--0-00000000000000-0-0-0-0-00-0-0-|-0-0-0-0-0-4-0-0-1--4--3-|
|---------0--0--0-00000000000000-0-0-0-0-00-0-0-|-0-0-0-0-0-4-0-0-1--4--3-|



First fucking Blood!!!

http://www.firstbloodrules.com


Добавлено: 22.06.2012
Другие материалы по этой песне:

Страница создана 13.06.2012
http://primanota.ru/first-blood/armageddon-chords.htm
Привет, Гость.
Предлагаем пройти революционный курс по гитаре.
Подарок от PrimaNota.Ru, забирай!