PrimaNota.ru - самый крупный в мире бесплатный архив песенных текстов, аккордов, табулатур и нот


First Aid Kit - Universal Soldier - аккорды и текст, видео

Регистрация Запомнить меня
Войти через:  Facebook Google Twitter Vk Yandex Mail.ru

First Aid Kit - Universal Soldier - аккорды и текст, видео

Печатать
Просмотров: 133
Авторы музыки: Buffy Sainte-Marie
Авторы текста: Buffy Sainte-Marie
Universal Soldier
First Aid Kit
-------------------------------------------------------------------------------
                     First Aid Kit - Universal Soldier
-------------------------------------------------------------------------------

I haven't seen any tabs for First Aid Kit's spin on Universal Soldier yet, so I decided to attempt one.
It seems accurate to me but suggestions for improvement are welcome.

Standard tuning, capo 8th fret.

Here is the picking pattern in relation to the chords, repeat this for the entire song.

    C          G             C             Am           Am         G
e|---------------------------------------------------------------------------|
B|--------1------------3-----------1-------------1----------1-----------1----|
G|--------0------------0-----------0-------------2----------2-----------0----|
D|----------2------------0-----------2-------------2----------2-----------0--|
A|--3------------------------3-------------0------------0--------------------|
E|-------------3---------------------------------------------------3---------|
   C
e|---------------------------------------------------------------------------|
B|-------1---------1---------------------------------------------------------|
G|-------0---------0---------------------------------------------------------|
D|---------2---------2-------------------------------------------------------|
A|-3----------3----------(repeat from beginning)-----------------------------|
E|---------------------------------------------------------------------------|


     C         G             C        Am
He's five foot-two, and he's six feet-four
                               G    
He fights with missiles and with spears
     C             G             C         Am
He's all of thirty-one, and he's only seventeen
                              G
Been a soldier for a thousand years

       C            G         C          Am
He's a Christian, a Hindu, an Atheist, a Jain,
                                G
A Buddhist, and a Muslim, and a Jew
       C                  G            C               Am
And he knows he shouldn't kill, and he knows he always will
                                       G
Kill you for me, my friend, and me for you

         C            G               C            Am
And he's fighting for Palestine, he's fighting for Israel
                      G
He's fighting for the USA
         C                G                  C            Am
And he's fighting for the Russians, and he's fighting for Iraq
                                           G
And he thinks we'll put an end to war this way

         C            G               C                Am
And he's fighting for Democracy, he's fighting for his soil
                                G
He says: "It's for the peace of all"
         C            G               C                 Am
He's the one who must decide who's to live and who's to die
                                     G
And he never sees the writing on the wall

        C                 G              C               Am
But without him how would Hitler have condemned him at Dachau?
                                     G
Without him Caesar would have stood alone
         C                 G         C             Am
He's the one who gives his body as a weapon of the war
                                     G
And without him all this killing can't go on

C G C Am G C (2x)

         C         G               C            Am
He's the universal soldier, and he really is to blame
                                 G
His orders come from far away no more
               C                   G
They come from here and there, and you and me
    C                  Am
And brother, can't you see
                                     G
This is not the way we put an end to war...

C G C
Добавлено: 12.07.2015
Другие материалы по этой песне:
  • Аккорды и текст

Страница создана 12.07.2015
http://primanota.ru/first-aid-kit/universal-soldier-chords.htm
Привет, Гость.
Предлагаем пройти революционный курс по гитаре.
Подарок от PrimaNota.Ru, забирай!