PrimaNota.ru - самый крупный в мире бесплатный архив песенных текстов, аккордов, табулатур и нот


Fireworks - I Am The Challenger - аккорды и текст, видео

Регистрация Запомнить меня
Войти через:  Facebook Google Twitter Vk Yandex Mail.ru

Fireworks - I Am The Challenger - аккорды и текст, видео

Печатать
Просмотров: 50
I Am The Challenger
Fireworks
-------------------------------------------------------------------------------
                      I Am The Challenger - Fireworks
                          Tabbed by: Dustin Fox
-------------------------------------------------------------------------------
This is my first submission so go easy on me.

I have been looking for this song for awhile couldn't find it anywhere so I did
my best to figure it out by ear this sounds right to me.

This song is finger picked but the chord shapes can just as easily be strummed

**Note: any time there is a Gadd/b chord let it ring.. but you should notice that
  when you listen to the song.

***Also, each chord that is marked here represents a full 4 beat measure except 
   for the ones with half written above it which means they are only a half 
   measure.
                                                         (EADGBe)
****Ultimate guitar does not recognize Gadd4/b but it is (x20013)

Tuning: Standard, capo on the third fret
-------------------------------------------------------------------------------

My best attempt at tabs for a full 4/4 measure of each chord

                             ***C***
e|-----------------------------------------------------------------|
B|---------------1-------------------------------1-----------------|
G|-------0---------------0-------0-------0---------------0-------0-|
D|----------0h3-------------0h3-------------0h3-------------0h3----|
A|---3---------------3---------------3---------------3-------------|
E|-----------------------------------------------------------------|

                             ***Am***
e|---------------0-------------------------------0-----------------|
B|-------1---------------1-------1-------1---------------1-------1-|
G|----------0h2-------------0h2-------------0h2-------------0h2----|
D|-----------------------------------------------------------------|
A|---3---------------3---------------3---------------3-------------|
E|-----------------------------------------------------------------|


-------------------------------------------------------------------------------
__________________________________________________________Intro- finger picking
 C

________________________________________________________Verse 1- finger picking
 C                          C
Keep my aim true like you wanted me to
                Am
Like you wanted me to
                  C
You always wanted me to
 C                           C
I'll make mistakes over and over again
                     Am
You taught me not to be afraid
                    C    
It's okay to make them again

_______________________________________________________________Chorus- strummed
                      half     half
 F                     Am       C
Taking my chances on leaving tonight
                              half
 F                             Am
I'm making the perfect mess of my life
half
 G                              
But you make it feel alright
 F
I'll keep on blowing it
      Am                
I'm still the next one down
    Gadd4/b                   
But you make it feel alright

________________________________________________________Verse 2- finger picking
 C

 C                              C
We'll watch the news like we always do
                         Am
The world's a fucked up place
                         C
But I feel alright with you
 C
I'll keep my friends
 C
That's the thing you do all over again
                            Am
You said they'd make me a better man
                     C
And bring out who I am

_______________________________________________________________Chorus- strummed
                          half    half
 F                         Am      C
I'm taking my chances on leaving tonight
                              half
 F                             Am
I'm making the perfect mess of my life
half
 G                             
But you make it feel alright
 F
I'll keep on blowing it
     Am                 
I'm still the next one down
 G                         
But you make it feel alright

_______________________________________________________________Bridge- strummed
 F              
When you open the door
             half   half
              Am     C
It's like Christmas '93
    F             
I know it scares you
               half            half
                Am              C
When I seem a little less than me
     F                              
You tell me the things that seem to go as planned
 half        half
  Am          C
Never really do

Gadd4/b
But I feel alright
*strum twice*
Gadd4/b                   
Yes, I feel alright with you

____________________________________________________Final Verse- finger picking
C

C                            C
Keep my aim true like you wanted me to...


Добавлено: 02.01.2016
Другие материалы по этой песне:
  • Аккорды и текст

Страница создана 02.01.2016
http://primanota.ru/fireworks/i-am-challenger-chords.htm
Привет, Гость.
Предлагаем пройти революционный курс по гитаре.
Подарок от PrimaNota.Ru, забирай!