PrimaNota.ru - самый крупный в мире бесплатный архив песенных текстов, аккордов, табулатур и нот


Firewind - Chariot - таба, видео

Регистрация Запомнить меня
Войти через:  Facebook Google Twitter Vk Yandex Mail.ru

Firewind - Chariot - таба, видео

Печатать
Просмотров: 131
-------------------------------------------------------------------------------
                             Chariot by Firewind
-------------------------------------------------------------------------------
Tabbed by: Nottachance

Info: Play through the first ending twice then on the third time play the 2nd ending 
instead of the 1st


Tuning: DGCFAD

Time: 0:00-0:32

    x x  x x    x x          x x   x x      x x   x x         x x   x x  x x
e|-----------------|---------------------|----------------|-----------------|
B|-----------------|---------------------|----------------|-----------------|
G|-----------------|---------------------|----------------|-----------------|
D|9-----9-----9----|12-10-7-9-----9-----9|------7------7h9|-9-----9----9----|
A|7-----7-----7----|-7--7-7-7-----7-----7|----9------9----|-7-----7----7----|
E|--0-0---0-0---0-0|----------0-0---0-0--|--8-----10------|---0-0---0-0--0-0|
                                        1st ending      2nd ending
            x x   x x     x x   x x     x x  x  +
e|----------------------|-------------|-----------|      |-----|
B|----------------------|-------------|-----------|      |-----|
G|----------------------|-------------|-----------|2x    |-----|
D|12-10-7-9-------------|-------------|-----------|      |-----|
A|-7--7-7-7-----9-----10|-----9-----10|---------12|      |-5-4-|
E|----------8-8---8-8---|-8-8---8-8---|-9-11-12---|      |-3-2-|



************************************

| /   slide up
| \   slide down
| h   hammer-on
| p   pull-off
| ~   vibrato
| +   pinch harmonic
| x   Mute note
| b   Bend
| pb  Pre-bend
| br  Bend release
| pbr Pre-bend release
| brb Bend release bend

************************************
Добавлено: 02.07.2012
Другие материалы по этой песне:

Страница создана 02.07.2012
http://primanota.ru/firewind/chariot-chords.htm
Привет, Гость.
Предлагаем пройти революционный курс по гитаре.
Подарок от PrimaNota.Ru, забирай!