PrimaNota.ru - самый крупный в мире бесплатный архив песенных текстов, аккордов, табулатур и нот


Fireflight - You Give Me That Feeling - текст песни, таба, видео

Регистрация Запомнить меня
Войти через:  Facebook Google Twitter Vk Yandex Mail.ru

Fireflight - You Give Me That Feeling - текст песни, таба, видео

Печатать
Просмотров: 196
TUNING!        Note: This is only the Rhythm Guitar
e: D#
B: B#                A double | means repeat
G: G#
D: C#                The tabs are written in 8th notes except for the bridge
A: B#                which is written in 16th notes
E: C#


Key: C#m


Intro:
|---------|--------|---------|--------||
|---------|--------|---------|--------||
|---------|--------|---------|--------||
|0---12---|7778--3-|0---12---|7778--3-||
|0---12---|7778--3-|0---12---|7778--3-||
|0---12---|7778--3-|0---12---|7778--3-||

Verse 1: (x4)
|--------|----------|--------|----------|
|--------|----------|--------|----------|
|----2222|----------|----2222|----------|
|0000----|---3335555|0000----|---3335353|
|--------|----------|--------|----------|
|--------|----------|--------|----------|

Pre-Chorus:
|--------|--------|--------|--------|--------|--------|--------|--------|
|--------|--------|--------|--------|--------|--------|--------|--------|
|3333-333|-333-333|--------|--------|3333-333|-333-333|55555555|--------|
|3333-333|-333-333|0000-000|-000-000|3333-333|-333-333|55555555|--------|
|1111-111|-111-111|0000-000|-000-000|1111-111|-111-111|33333333|--------|
|--------|--------|0000-000|-000-000|--------|--------|--------|55553333|

Chorus: 
|---------|--------|---------|--------|--------|--------|--------|--------||
|---------|--------|---------|--------|--------|--------|--------|--------||
|---------|--------|---------|--------|33333333|33333333|55555555|55555555||
|0---12---|7778--3-|0---12---|7778--3-|33333333|33333333|55555555|55555555||
|0---12---|7778--3-|0---12---|7778--3-|11111111|11111111|33333333|33333333||
|0---12---|7778--3-|0---12---|7778--3-|--------|--------|--------|--------||


Verse 2:

|--------|----------|--------|----------||
|--------|----------|--------|----------||
|----2222|----------|----2222|----------||
|0000----|---3335555|0000----|---3335353||
|--------|----------|--------|----------||
|--------|----------|--------|----------||


(Pre-Chours)


(Chorus)

Bridge: -This is part is written in 16th notes
|----------------|----------------|----------------|-----------------|
|----------------|----------------|----------------|-----------------|
|----------------|----------------|----------------|-----------------|
|5-5-5-5-5-5-5-5-|5-5-5-5-7-7-8-8-|8-8-8-8-8-8-8-8-|3---p0---0-00-0--|
|5-5-5-5-5-5-5-5-|5-5-5-5-7-7-8-8-|8-8-8-8-8-8-8-8-|3---p0---0-00-0--|
|5-5-5-5-5-5-5-5-|5-5-5-5-7-7-8-8-|8-8-8-8-8-8-8-8-|3---p0---0-00-0--|

|-----------------||----------------|----------------|----------------|
|-----------------||----------------|----------------|----------------|
|-----------------||----------------|----------------|----------------|
|3---p0---0-00-0--||5-5-5-5-5-5-5-5-|5-5-5-5-7-7-8-8-|8-8-8-8-8-8-8-8-|
|3---p0---0-00-0--||5-5-5-5-5-5-5-5-|5-5-5-5-7-7-8-8-|8-8-8-8-8-8-8-8-|
|3---p0---0-00-0--||5-5-5-5-5-5-5-5-|5-5-5-5-7-7-8-8-|8-8-8-8-8-8-8-8-|

|----------------|----------------|--------------------|-------------------|
|----------------|----------------|--------------------|-------------------|
|----------------|----------------|--------------------|-------------------|
|----------------|----------------|10---10---10---10---|10---10---10-------|
|----------------|----------------|10---10---10---10---|10---10---10-------|
|7-7-7-7-7-7-7-7-|7-7-7-7-7-7-7-7-|10---10---10---10---|10---10---10-------|

(Back to 8th notes)
|---------|--------|---------|--------|
|---------|--------|---------|--------|
|---------|--------|---------|--------|
|---------|--------|---------|--------|
|---------|--------|---------|--------|
|0--/12~~~|77783333|0--/12~~~|77783333|


(Chorus)


|---------|--------|---------|--------||
|---------|--------|---------|--------||
|---------|--------|---------|--------||
|0---12---|7778--3-|0---12---|7778--3-||
|0---12---|7778--3-|0---12---|7778--3-||
|0---12---|7778--3-|0---12---|7778--3-||

|---------|--------|---------|--------||--------*|
|---------|--------|---------|--------||--------*|
|---------|--------|---------|--------||0-------*|
|0---12---|7778--3-|0---12---|7778--3-||0-------*|
|0---12---|7778--3-|0---12---|7778--3-||0-------*|

fin!
Добавлено: 23.07.2012
Другие материалы по этой песне:

Страница создана 23.07.2012
http://primanota.ru/fireflight/you-give-me-that-feeling-chords.htm
Привет, Гость.
Предлагаем пройти революционный курс по гитаре.
Подарок от PrimaNota.Ru, забирай!