PrimaNota.ru - самый крупный в мире бесплатный архив песенных текстов, аккордов, табулатур и нот


Fireflight - Waiting - текст песни, таба, видео

Регистрация Запомнить меня
Войти через:  Facebook Google Twitter Vk Yandex Mail.ru

Fireflight - Waiting - текст песни, таба, видео

Печатать
Просмотров: 141
Song: "Waiting" by Fireflight
Tuneing low to high: (C# G# C# F# A# D#)

|-------------------------------------|
|-------------------------------------|
|-------------------------------------|
|-2---2-2--2-2--2--2-2--2-2-----------|    Intro  X4
|-2---2-2--2-2--2--2-2--2-2--5--------|
|-2---2-2--2-2--2--2-2--2-2----7-5----|

Verse x 2
  PM--------------------------------------------------------|
|---------------------|-------------------------------------|
|---------------------|-------------------------------------|
|-9-9-9-9-12-12-11-11-|-9-9-9-9-12-12-11-11-9-\7-\9---------|
|---------------------|-----------------------------| GTR 1-|
|---------------------|-------------------------------------|
|---------------------|-------------------------------------|
|
|     PM|           PM      PM|
|---------------------|-----------------------------|
|---------------------|-----------------------------|
|---------------------|-----------------------------|
|-2---2-2-----2-----2-|-2---2-2-----2-\7-\2---------| GTR 2
|-2---2-2-----2-----2-|-2---2-2-----2-\7-\2---------|
|-2---2-2-----2-----2-|-2---2-2-----2-\7-\2---------|


  PM--------------------------------------------------------|
|---------------------|-------------------------------------|
|---------------------|-------------------------------------|
|-9-9-9-9-12-12-11-11-|-9-9-9-9-12-12-11-11-\14-\11---------|
|---------------------|-----------------------------| GTR 1-|
|---------------------|-------------------------------------|
|---------------------|-------------------------------------|
|
|     PM|           PM      PM|
|---------------------|-----------------------------|
|---------------------|-----------------------------|
|---------------------|-----------------------------|
|-2---2-2-----2-----2-|-2---2-2-----2-\7-\2---------| GTR 2
|-2---2-2-----2-----2-|-2---2-2-----2-\7-\2---------|
|-2---2-2-----2-----2-|-2---2-2-----2-\7-\2---------|

Chorus x 2
|-------------------------------|
|-------------------------------|
|--------7777-------------------|
|-2-2-xx-7777-7777-5-5----------|
|-2-2-xx-5555-7777-5-5--5-------|
|-2-2-xx------7777-5-5----7-5---|

Pre-Verse(same as intro)
|-------------------------------------|
|-------------------------------------|
|-------------------------------------|
|-2---2-2--2-2--2--2-2--2-2-----------|  X4
|-2---2-2--2-2--2--2-2--2-2--5--------|
|-2---2-2--2-2--2--2-2--2-2----7-5----|

(Verse)

(Chorus)

 Solo
|-15-15-14-12-12-15-15-14-17-17-15-15-14-15-14-12--|
|--------------------------------------------------|
|--------------------------------------------------|
|--------------------------------------------------|
|--------------------------------------------------|
|--------------------------------------------------|

|-15-15-14-12-12-15-15-14-17-17-15-15-14-15-14-12---------|
|---------------------------------------------------15b17-|
|---------------------------------------------------------|
|---------------------------------------------------------|
|---------------------------------------------------------|
|---------------------------------------------------------|

 Pre-Chorus After Solo
|-----------------------------------------------------|
|-----------------------------------------------------|
|-9-----------12-----------16------------21-----------|
|-x-(8 times)-x--(8 times)-x--(8 times)--x--(8 times)-|
|-7-----------10-----------14------------19-----------|
|-----------------------------------------------------|

Chorus(played 4 times, also lead guitar plays solo the on last chorus)

Intro riff is played 4 times to end the song

And thats it, Enjoy!
Добавлено: 01.06.2012
Другие материалы по этой песне:

Страница создана 11.03.2012
http://primanota.ru/fireflight/waiting-chords.htm
Привет, Гость.
Предлагаем пройти революционный курс по гитаре.
Подарок от PrimaNota.Ru, забирай!