PrimaNota.ru - самый крупный в мире бесплатный архив песенных текстов, аккордов, табулатур и нот


Fireflight - The Love We Had Before - текст песни, таба, видео

Регистрация Запомнить меня
Войти через:  Facebook Google Twitter Vk Yandex Mail.ru

Fireflight - The Love We Had Before - текст песни, таба, видео

Печатать
Просмотров: 159
-------------------------------------------------------------------------------
               The Love We Had Before - Fireflight
-------------------------------------------------------------------------------
Tabbed by: mokmok111
Email: munkntunk@cox.net

Tuning:Drop c

Intro (x2):

d|--------------------------------------------------------------------------|
a|--------------------------------------------------------------------------|
F|--------------------------------------------------------------------------|
C|-2-x-x--2s4--4-4-4-4---4-x-x--7s6--6-6-6-6---2-x-x--2s4--4-4-4-4----------|
G|-2-x-x-----------------4-x-x-----------------2-x-x------------------------|
C|-2-x-x-----------------4-x-x-----------------2-x-x------------------------|

d|-------------------|
a|-------------------|
F|-------------------|
C|-2-x-x-2-x-2-x-2-2-|
G|-2-x-x-2-x-2-x-2-2-|
C|-2-x-x-2-x-2-x-2-2-|

Verse:
The notes in parenthesis is the little riff in the verse that is only played after the 
time around (The notes are not very accurate).

d|----------------------------------------------------------------------|
a|----------------------------------------------------------------------|
F|----------------------------------------------------------------------|
C|-2-2-2-2-2-2-2-2-2-2-2-2-2-2-2--4-4-4-4-4-6----(-7-7-6-6-4-4-)--------|
G|-2-2-2-2-2-2-2-2-2-2-2-2-2-2-2--4-4-4-4-4-6---------------------------|
C|-2-2-2-2-2-2-2-2-2-2-2-2-2-2-2--4-4-4-4-4-6---------------------------|

Chorus (x2):
Don't do the notes In parenthesis until he second time around.

d|------------------------------------------------------------------------------------|
a|------------------------------------------------------------------------------------|
F|------------------------------------------------------------------------------------|
C|-2-2-2-2-7-7-7-7-6-6-6-6-4-4-4-4-2-2-2-2-4-4-4-4-(-2-2-2-2-4-4-4-4-2-2-2-2-4-4-4-4)-|
G|-2-2-2-2-7-7-7-7-6-6-6-6-4-4-4-4-2-2-2-2-4-4-4-4-(-2-2-2-2-4-4-4-4-2-2-2-2-4-4-4-4)-|
C|-2-2-2-2-7-7-7-7-6-6-6-6-4-4-4-4-2-2-2-2-4-4-4-4-(-2-2-2-2-4-4-4-4-2-2-2-2-4-4-4-4)-|

(Do the intro one time after that chorus after verse 1 after the chorus that's after 
2 go to the bridge.)

Bridge:

d|----------------------------------------------|
a|----------------------------------------------|
F|----------------------------------------------|
C|-2~-4~-6~-7~-6~-------------------------------|
G|-2~-4~-6~-7~-6~-----------------------|   A|--|
C|-2~-4~-6~-7~-6~-------------------------------|x2

This is the part at "Where is the love" or something like that.

d|---------------------------------|
a|---------------------------------|
F|---------------------------------|
C|-7-7-7-7-6-6-6-6-4-4-4-4-2-2-2-2-|
G|-7-7-7-7-6-6-6-6-4-4-4-4-2-2-2-2-|
C|-7-7-7-7-6-6-6-6-4-4-4-4-2-2-2-2-|x3

Order of the song:
Intro x2
Verse x2
Chorus x2
Intro x1
Verse x2
Chorus x2
Bridge x1
Chorus x4
Intro x1

I tried as hard as I could to make this tab understandable to all. I know something is 
I am open to comments and corrections so please do.

                        Thanks God bless you,
                               Jamey.
Добавлено: 14.03.2012
Другие материалы по этой песне:

Страница создана 14.03.2012
http://primanota.ru/fireflight/the-love-we-had-before-chords.htm
Привет, Гость.
Предлагаем пройти революционный курс по гитаре.
Подарок от PrimaNota.Ru, забирай!