PrimaNota.ru - самый крупный в мире бесплатный архив песенных текстов, аккордов, табулатур и нот


Fireflight - Stronger Than You Think - текст песни, таба, видео

Регистрация Запомнить меня
Войти через:  Facebook Google Twitter Vk Yandex Mail.ru

Fireflight - Stronger Than You Think - текст песни, таба, видео

Печатать
Просмотров: 228
                            ~Stronger Than You Think~
                                   ~Fireflight~
Tuning~Drop C#
                                      
         
Intro

E------13-----12------|--------------------|-----------------10----|
B---------------------|-10-----11----10-11-|-10-----13-----13------|
G----10----10-----10--|------10----10------|------10-----10--------|
D--12----12-----12----|----12----12--------|----12-----12----------|
A---------------------|--------------------|-----------------------|
E---------------------|--------------------|-----------------------|


E---------------------|-----------------10-|
B-10-----11----10-11--|-----10-13-----13---|
G------10----10-------|---10--------10-----|
D----12----12---------|-12--------12-------|
A---------------------|--------------------|
E---------------------|--------------------|


Guitar~Main riff

E------------------------------|------------------------------------|
B------------------------------|------------------------------------|
G------------------------------|--------------------5---5/7---------|
D--0-----------3-----8-----7-8-|--0-----------3-----5---5/7---------|
A--0--8---7----3-----8-----7-8-|--0--8---7----3-----3---3/5---------|
E--0----0---0--3--0--8--0--7-8-|--0----0---0--3--0----0-------------|


E------------------------------|------------------------------------|
B------------------------------|------------------------------------|
G------------------------------|------------------------------------|
D--0-----------3-----8-----7-8-|--0-----------3-3-3-3-7-7-7-8-0-----|
A--0--8---7----3-----8-----7-8-|--0--8---7----3-3-3-3-7-7-7-8-0-----|
E--0----0---0--3--0--8--0--7-8-|--0----0---0--3-3-3-3-7-7-7-8-0-----|


Verse  2x
   " I know your intentions..."
E-------------------------------------------------------------------|
B-------------------------------------------------------------------|
G-------------------------------------------------------------------|
D-0-0--0-0-0-0---8-8-8-8--8-8-7-7--7-7------------------------------|
A-0-0--0-0-0-0---8-8-8-8--8-8-7-7--7-7-7h8--------------------------|
E-0-0--0-0-0-0---8-8-8-8--8-8-7-7--7-7------------------------------|
  p.m  p.m----|  p.m----| p.m----| p.m

     2x
          " I used to chase you..."
E-------------------------------------------------------------------|
B-------------------------------------------------------------------|
G-------------------------------------------------------------------|
D-------------------------------------------------------------------|
A-----12---8----12---8---12---8v------10---7----8---7v---7-8-7-5----|
E-0-0----0----0----0---0----0-----0-0----0----0---0----0------------|

   "Your worst, your worst..."
E-------------------------------------------------------------------|
B-------------------------------------------------------------------|
G-------------------------------------------------------------------|
D--8-8-8-8-8-8-8-8-7-7-7-7-7----------------------------------------|
A--8-8-8-8-8-8-8-8-7-7-7-7-7----------------------------------------|
E--8-8-8-8-8-8-8-8-7-7-7-7-7----------------------------------------|


Chorus  

 " I,             I,              I am stronger than you think"
 " No I don't buy the lies you sell..."
E------------------------------------------------------------------|
B------------------------------------------------------------------|
G------------------------------------------------------------------|
D--0-0-0-0-0-0-0-0-3-3-3-3-3-3-3-3-8-8-8-8-8-8-8-8-7-7-7-7-7-7-7-7-|
A--0-0-0-0-0-0-0-0-3-3-3-3-3-3-3-3-8-8-8-8-8-8-8-8-7-7-7-7-7-7-7-7-|
E--0-0-0-0-0-0-0-0-3-3-3-3-3-3-3-3-8-8-8-8-8-8-8-8-7-7-7-7-7-7-7-7-|


 " I,      believe,          you'll never get the best of me"
 " I,             I,        I am stronger,      stronger than you..."
E------------------------------------------------------------------|
B------------------------------------------------------------------|
G----------------------------------3-3-3-3-3-3-3-3-5-5-5-5-6-6-6-6-|
D--0-0-0-0-0-0-0-0-3-3-3-3-3-3-3-3-3-3-3-3-3-3-3-3-5-5-5-5-6-6-6-6-|
A--0-0-0-0-0-0-0-0-3-3-3-3-3-3-3-3-1-1-1-1-1-1-1-1-3-3-3-3-4-4-4-4-|
E--0-0-0-0-0-0-0-0-3-3-3-3-3-3-3-3---------------------------------|

Main riff
Verse 
Chorus

Bridge 4x

E---------------------------------------------|
B---------------------------------------------|
G--7--5--3--2---------------------------------|
D--7--5--3--2---------------------------------|
A--5--3--1--0--0h1-0--------------------------|
E---------------------------------------------|

Verse
Chorus
Main Riff
 
Done.I couldn't find this tab anywhere so I 
figured the whole thing out by ear.
Also, I'm not 100% sure about that second verse part.
If you don't want to play it, just play the first
verse part over it.
Please rate and comment. Thanks

                                 ~LEGEND~
                            /~ Slide up the neck
                          p.m~ Palm Mute
                            h~ Hammer-on
                            v~ Vibrato
Добавлено: 07.11.2013
Другие материалы по этой песне:

Страница создана 08.09.2013
http://primanota.ru/fireflight/stronger-than-you-think-chords.htm
Привет, Гость.
Предлагаем пройти революционный курс по гитаре.
Подарок от PrimaNota.Ru, забирай!