PrimaNota.ru - самый крупный в мире бесплатный архив песенных текстов, аккордов, табулатур и нот


Fireball Ministry - The Broken - текст песни, таба, видео

Регистрация Запомнить меня
Войти через:  Facebook Google Twitter Vk Yandex Mail.ru

Fireball Ministry - The Broken - текст песни, таба, видео

Печатать
Просмотров: 131
Db Ab Db Gb Bb Eb tuning

The Broken by Fireball Ministry

Intro
|-----------------------------------------------------|
|-----------------------------------------------------|
|-----------------------------------------------------|
|---------3-------5-----3-----------3-------5-----3---|
|-3-5-5-5---5---------------3-5-5-5---5---------------|
|-------------5-5---5-3---3-------------5-5---3-3---3-|

|-------------1/3-3-3-1-1-1-----------------|
|-------------------------------------------|
|-------------------------------------------|
|---------3-------------------------3-----5-|
|-3-5-5-5---5---------------3-5-5-5---5-3-5-|
|-----------------------------------------5-|

Verse
|--------------------------------------------------------|
|--------------------------------------------------------|
|--------------------------------------------------------|
|----5/7-7-/-5/7-7-/-5-5/7-7-/-5-5/7-7-7-7-7-------------|
|-12/3/5-5-/-3/5-5-/-3-3/5-5-/-3-3/5-5-5-5-5-5-5-5-3-3-3-|
|-12/----------------------------------------5-5-5-3-3-3-|

|-----------------------------------------------------------|
|-----------------------------------------------------------|
|-----------------------------------------------------------|
|---------------5-5-5---------------------10-10-10----------|
|-0-0-0-0-0-0-0-3-3-3-3-3-3-0-0-0-0-0-0-0-8--8--8--10-10-10-|
|-0-0-0-0-0-0-0-------3-3-3-0-0-0-0-0-0-0----------10-10-10-|
  - - - - - - -             - - - - - - -

|-----------------------------------------------------------|
|-----------------------------------------------------------|
|-----------------------------------------------------------|
|---------------5-5-5---------------------10-10-10----------|
|-0-0-0-0-0-0-0-3-3-3-3-3-3-0-0-0-0-0-0-0-8--8--8--10-10-10-|
|-0-0-0-0-0-0-0-------3-3-3-0-0-0-0-0-0-0----------10-10-10-|
  - - - - - - -             - - - - - - -

Pre Chorus
|-------------------------------------------------|
|-------------------------------------------------|
|-------------------------------------------------|
|-2-----5-2-----5-2-----5-2-2-2-2-2-2-2-2-2-2-2-2-|
|-0---3-3-0---3-3-0---3-3-0-0-0-0-0-0-0-0-0-0-0-0-|
|-----3-------3-------3---------------------------|
                            - - - - - -

Chorus
|---------------------------------------------------|
|---------------------------------------------------|
|---------------------------------------------------|
|---------------10-10-10-10-10----------------------|
|-3-2-0-0-0-0-0-8--8--8--8--8--10-10-10-10-10-5-5-5-|
|-3-2-0-0-0-0-0----------------10-10-10-10-10-5-5-5-|

|---------------------------------------------------|
|---------------------------------------------------|
|---------------------------------------------------|
|---------------10-10-10-10-10----------------------|
|-3-2-0-0-0-0-0-8--8--8--8--8--10-10-10-10-10-5-5-5-|
|-3-2-0-0-0-0-0----------------10-10-10-10-10-5-5-5-|

|---------------------------------------------------|
|---------------------------------------------------|
|---------------------------------------------------|
|---------------10-10-10-10-10----------------------|
|-3-2-0-0-0-0-0-8--8--8--8--8--10-10-10-10-10-5-5-5-|
|-3-2-0-0-0-0-0----------------10-10-10-10-10-5-5-5-|

|---------------------------------------------------------|
|---------------------------------------------------------|
|---------------------------------------------------------|
|---------------10-10-10-10-10----------------------------|
|-3-2-0-0-0-0-0-8--8--8--8--8--10-10-10-10-10-5-5-5-3-2-0-|
|-3-2-0-0-0-0-0----------------10-10-10-10-10-5-5-5-3-2-0-|

Play Verse

Play Pre Chorus

Play Chorus

Interlude
|---------------------------------------------------------------------------------|
|-------------------------------------------5-3-6-5---5-3-6-5---5-3-6-5---5-3-6-5-|
|---5-4-7-5---5-4-7-5---5-4-7-5---5-4-7-5---5-4-7-5---5-4-7-5---5-4-7-5---5-4-7-5-|
|---------------------------------------------------------------------------------|
|-0---------0---------0---------0---------0---------0---------0---------0---------|
|---------------------------------------------------------------------------------|

|---5-3-6-5---5-3-6-5---5-3-6-5---5-3-6-5-------------------------------------|
|---6-5-8-6---6-5-8-6---6-5-8-6---6-5-8-6---5-3-6-5---5-3-6-5---5-3-6-5-------|
|-------------------------------------------5-4-7-5---5-4-7-5---5-4-7-5-------|
|-0---------0---------0---------0---------------------------------------4/5-5-|
|-----------------------------------------0---------0---------0---------2/3-3-|
|-----------------------------------------------------------------------------|

Solo
|---------------------------11-----------------------------------------------------|
|------------9-12----12(13)----11-9h11p9----9--------------------------------------|
|-10-10-8-10------10---------------------10---10-10-10-8h10p8----8-----------------|
|-------------------------------------------------------------10---10-8h10p8-6h8p6-|
|----------------------------------------------------------------------------------|
|----------------------------------------------------------------------------------|

|----------------------------------------------------------11---------------------|
|---------------------------------------------------12(13)----11-9h11p9----9------|
|---------------------------------------------10-12---------------------10---10~~-|
|--------------8(9)-8(9)-8(9)8-6---6-6-8-8/10-------------------------------------|
|-8-8~~--8p7h8-------------------8------------------------------------------------|
|---------------------------------------------------------------------------------|

|------------------------------------------------------------------------|
|------------------------------------------------------------------------|
|-10-10-/12-12-10/8-8/10-10-/12-12-10/8-8/10-10-/12-12-10/8-8/10-10-10~~-|
|------------------------------------------------------------------------|
|------------------------------------------------------------------------|
|------------------------------------------------------------------------|

|------------------11----------------------------------------------------|
|------9/11-12(13)----11(12)11-9-11-12-11(12)11-9-11-9h11p9--------------|
|-8-10------------------------------------------------------10-8-10-10~~-|
|------------------------------------------------------------------------|
|------------------------------------------------------------------------|
|------------------------------------------------------------------------|

|-------------|
|-------------|
|-------------|
|-------------|
|-6-5-3-5-3-2-|
|-6-5-3-5-3-2-|

Play Chorus twice

Outro
|-------------------|
|-------------------|
|-------------------|
|-------------------|
|-3-2-0-3-2-0-3-2-0-|
|-3-2-0-3-2-0-3-2-0-|

Kevin Johnson 
2007
Добавлено: 14.05.2012
Другие материалы по этой песне:

Страница создана 14.05.2012
http://primanota.ru/fireball-ministry/the-broken-chords.htm
Привет, Гость.
Предлагаем пройти революционный курс по гитаре.
Подарок от PrimaNota.Ru, забирай!