PrimaNota.ru - самый крупный в мире бесплатный архив песенных текстов, аккордов, табулатур и нот


Fireball Ministry - Maidens Of Venus - текст песни, таба, видео

Регистрация Запомнить меня
Войти через:  Facebook Google Twitter Vk Yandex Mail.ru

Fireball Ministry - Maidens Of Venus - текст песни, таба, видео

Печатать
Просмотров: 103
Song:Maidens of Venus
Artist:Fireball Ministry
Album:The Second Great Awakening
Tuning(low to high):Eb Ab Db Gb Bb Eb
Arranged for 1 guitar

Slow timing

Intro Riff                          x2
|------------------------------------|
|---------10(11)---------------------|
|-7(8)7-5--------5-7-5-7(8)-----4----|
|---------------------------5-5------|
|---------------------------------7/-|
|------------------------------------| 

Verse Riff                                                                       x1
|-----------------------------------------|---------------------------------------|
|-----------------------------------------|---------------------------------------|
|-----------------------------------------|---------------------------------------|
|---------5-5-------------------5-5-------|---------5-5-------------------5-5-----|
|-7-7/5-5-3-3/5-5(6)5-3-7-7/5-5-3-3-------|-7-7/5-5-3-3/5-5(6)5-3-7-7/5-5-3-3-7-5-|
|-5-5/3-3---------------5-5/3-3-----3-4-5-|-5-5/3-3---------------5-5/3-3-----5-3-| 

Intro Riff x2

Verse Riff x1

Chorus Riff x1
|----------------------------------|------------------------------------|
|----------------------------------|------------------------------------|
|----------------------------------|------------------------------------|
|-9-9-----7-7--------9-9-----7-7---|-9-9-----7-7-----------9-9-9-9-9-9/-|
|-7-7-9-9-5-5--------7-7-9-9-5-5-7-|-7-7-9-9-5-5-------7-5-7-7-7-7-7-7/-|
|-----7-7-----5-6-7/-----7-7-----5-|-----7-7-----5-6-7/5-3--------------|

Intro Riff x2

Verse Riff x1

Chorus Riff x1

Interlude Riff       x4
|---------------------|
|---------------------|
|---------------------|
|---------------------|
|-7-5---------5-3-----|
|-----7-5-6-7-----4-5-|

Solo
|---------------------------------------------------------------------|
|-------------------------------------------------------------------8-|
|-7(8)7-5-7(8)7-5-7(8)7-5-7-5-7(8)7-5-7h8p7---5-7-7-7h8p7---5-7-5h7---|
|-7(8)7---7(8)7---7(8)7---------------------7-------------7-----------|
|---------------------------------------------------------------------|
|---------------------------------------------------------------------|

|------10-10(10)10-8----8-------------------------------------------------|
|-8/10---------------10---10-8-10-8---------------------------------------|
|-----------------------------------9-7-5-5-----7-7(8)7-5-7-5---5---------|
|-------------------------------------7-5---5-7---7(8)7-------7---7-5-7-5-|
|-------------------------------------------------------------------------|
|-------------------------------------------------------------------------|

|---------------------------------------------------------------------------|
|---------------------------------------------------------------------------|
|-------------------------------------5-7-7(8)7-5-7-7(8)7-----5-7(8)-7(8)-7-|
|---5---------------------------5-5-7---7-7(8)7---7-7(8)7-5h7---------------|
|-7---7-5-7-5---5---------5-5-7---------------------------------------------|
|-------------7---7-5-5-7---------------------------------------------------|

Chorus Riff x1
|----------------------------------|-------------------------------------|
|----------------------------------|-------------------------------------|
|----------------------------------|-------------------------------------|
|-9-9-----7-7--------9-9-----7-7---|-9-9-----7-7-----------9-9-9---------|
|-7-7-9-9-5-5--------7-7-9-9-5-5-7-|-7-7-9-9-5-5-------7-5-7-7-7---------|
|-----7-7-----5-6-7/-----7-7-----5-|-----7-7-----5-6-7/5-3-------5-5-6-7-|

Solo 2 (with Chorus)
|----------------------------------------------------------------------|
|----------------------------------------------------------------------|
|-11(13)-(13)-(13)11-9-11~11~~11-(13)11----9-11-11-(13)11----9-11----9-|
|---------------------------------------11----------------11------11---|
|----------------------------------------------------------------------|
|----------------------------------------------------------------------|

|----------------------------------------------14/15~15~12h14p12----12----|
|-------------------------------------12-12/14-------------------14----14-|
|-11(13)-(13)-(13)11-9-11~11~~11-9h11-------------------------------------|
|-------------------------------------------------------------------------|
|-------------------------------------------------------------------------|
|-------------------------------------------------------------------------|

|-14(15)-12----12-------10-------------------------------------------------------|
|-----------14----14-12----12-------------------------------------------------10-|
|-----------------------------11-11-9~7h9---7---------------------------7-7h9----|
|-----------------------------------------9---9-7h9---7-----------7-7h9----------|
|---------------------------------------------------9---9p7---7h9----------------|
|-----------------------------------------------------------9--------------------|

|-----------------------------------------------------------------------------------|
|-10-----10(12)-10(12)10-8-10-8-------8h10---(11)10---8-----------------------------|
|-12(14)------------------------9-7h9------7--------9---9-7h9-9~7h9---7-------------|
|-------------------------------------------------------------------9---9-7-5-------|
|-----------------------------------------------------------------------------7-5-7-|
|-----------------------------------------------------------------------------------|

2006 Kevin Johnson
Добавлено: 03.07.2012
Другие материалы по этой песне:
  • Аккорды и текст

Страница создана 27.05.2012
http://primanota.ru/fireball-ministry/maidens-of-venus-chords.htm
Привет, Гость.
Предлагаем пройти революционный курс по гитаре.
Подарок от PrimaNota.Ru, забирай!