PrimaNota.ru - самый крупный в мире бесплатный архив песенных текстов, аккордов, табулатур и нот


Fire And Forget - Blast - бас-таба, видео

Регистрация Запомнить меня
Войти через:  Facebook Google Twitter Vk Yandex Mail.ru

Fire And Forget - Blast - бас-таба, видео

Печатать
Просмотров: 87
G|---------------------------------------------------------------------------|
D|---------------------------------------------------------------------------|
A|----6-7-6----4-5-2---6-7-6---4-5-2---6-7-6---4-5-2-------------------------|
E|--4--------2-------4-------2-------4-------2-------------------------------|

G|---------------------------------------------------------------------------|
D|--2----4----666----4-44----6-66---4-44-----6--4----------------------------|
A|-------------------------------------------------6-------------------------|
E|--0----2----4--------------------------------------------------------------|

G|---------------------------------------------------------------------------|
D|---------------------------------------------------------------------------|
A|---------------------------------------------------------------------------|
E|--4444444---------2222222--------0000000-------2-222222---4-444444---------|

G|---------------------------------------------------------------------------|
D|-----------------------------------6-6-----6-------------------------------|
A|---------------------------------------------------------------------------|
E|--0000000---------2222222-------44-------4---------------------------------|

G|---------------------------------------------------------------------------|
D|---------------------------------------------------------------------------|
A|----6-7-6----4-5-2---6-7-6---4-5-2---6-7-6---4-5-2-------------------------|
E|--4--------2-------4-------2-------4-------2-------------------------------|

G|---------------------------------------------------------------------------|
D|---------------------------------------------------------------------------|
A|---------------------------------------------------------------------------|
E|--4444444---------2222222--------0000000-------2-222222---4-444444---------|

G|---------------------------------------------------------------------------|
D|-----------------------------------6-6-6-----------------------------------|
A|---------------------------------------------------------------------------|
E|--0000000---------2222222--------4-------4---------------------------------|

G|-------------------------------------10-11-10---8-9-6---10-11-10---8-9-6---|
D|-----------------------------------8----------6-------8----------6---------|
A|----6-7-6----4-5-2---6-7-6---4-5-2-----------------------------------------|
E|--4--------2-------4-------2-----------------------------------------------|
Добавлено: 19.06.2013
Другие материалы по этой песне:
  • Аккорды и текст

Страница создана 19.06.2013
http://primanota.ru/fire-and-forget/blast-chords.htm
Привет, Гость.
Предлагаем пройти революционный курс по гитаре.
Подарок от PrimaNota.Ru, забирай!