PrimaNota.ru - самый крупный в мире бесплатный архив песенных текстов, аккордов, табулатур и нот


Fiorella Mannoia - Caterina E Il Coraggio - таба, видео

Регистрация Запомнить меня
Войти через:  Facebook Google Twitter Vk Yandex Mail.ru

Fiorella Mannoia - Caterina E Il Coraggio - таба, видео

Печатать
Просмотров: 77
		   --------
Caterina e il coraggio (Fiorella Mannoia)
(Capotasto II°)

 (A)Intro:
    MI-                  LA9/FA#    SI7/FA       MI-
||----------------------|---------------------|-----------------------|
||--------0---------0---|-------0---------0---|--------0---------0----|
||------0---0-----0---0-|-----2---2-----2---2-|------0---0-----0---0--|
||----2---------2-------|---2---------1-------|----2---------2--------|
||----------------------|---------------------|-----------------------|
||--0---------0---------|-2---------1---------|--0---------0----------|


  LA9/FA#    SI7/FA    DO7+                       SOL
|---------------------|-3-----------------------|---------------------|
|-------0---------0---|-------0---------0-------|-------0---------0---|
|-----2---2-----2---2-|-----0---0-----0---0h2p0-|-----0---0-----0---0-|
|---2---------1-------|---2---------2-----------|---0---------0-------|
|---------------------|-3---------3-------------|---------------------|
|-2---------1---------|-------------------------|-3---------3---------|

                                               (B)
   MI-7/DO#               DO7+     SI7/4 SI7    MI-
|--0-------------------|--0------------------||-----------------------|
|--------5---------5---|--------0-----5----4-||-------0----------0----|
|------4---4-----4---4-|------0---0--------2-||-----0---0------0---0--|
|----5---------5-------|----2-----------4----||---2----------2--------|
|--4---------4---------|--3-----------2------||-----------------------|
|----------------------|---------------------||-0----------0----------|
                                            1. Caterina che stringi la
                                            2. Non è un vivere sempre di
                                            3. Caterina che inganni la

   LA9/FA#    SI7/FA     DO7+                   LA9/FA#    SI7/FA
|----------------------|----------------------|-----------------------|
|-------0---------0----|-------0---------0----|--------0---------0----|
|-----2---2-----2---2--|-----0---0-----0---0--|------2---2-----2---2--|
|---2---------1--------|---2---------2--------|----2---------1--------|
|----------------------|----------------------|-----------------------|
|-2---------1----------|-0---------0----------|--2---------1----------|
1.  notte                e questa notte si ferma dov'è
2.  maggio               non è un cantico e questo lo sai
3.  notte                ma questa notte tradisce anche te

   DO7+                  SOL                    MI-7/DO#
|----------------------|----------------------|-----------------------|
|--------0---------0---|-------0---------0----|--------5---------5----|
|------0---0-----0---0-|-----0---0-----0---0--|------4---4-----4---4--|
|----2---------2-------|---0---------0--------|----5---------5--------|
|--3---------3---------|----------------------|--4---------4----------|
|----------------------|-3---------3----------|-----------------------|
1. Caterina che ascolti e non parli di te       la bellezza ti illumina
2. sfiori il tempo, conosci l'amore, e lo fai   senza amore col solo
3. Caterina che passi nel freddo che c'è        questo inverno è già neve
 _                           _
|1.   DO7+         SI7      |2.     DO7+         SI7         MI-
|-------------------2------||-------------------2-----|--------0--||
|--------0------------0----||--------0------------0---|-------0---||
|------0---0------2-----2--||------0---0------2-----2-|-----0-----||
|----2---------------------||----2--------------------|---2-------||
|--3------------2----------||--3------------2---------|-----------||
|--------------------------||-------------------------|-0---------||
1. il pianto
2.                           coraggio               che hai
3.                           e rimpianto            per te


(C) Ritornello
  LAm7      SI7         MI-                   LAm7      SI7
|---------------------|---------------------|---------------------|
|-------1---------0---|-------0---------0---|-------1---------0---|
|-----0---0-----2---2-|-----0---0-----0---0-|-----0---0-----2---2-|
|---2---------1-------|---2---------2-------|---2---------1-------|
|-0---------2---------|---------------------|-0---------2---------|
|---------------------|-0---------0---------|---------------------|
 Stella incerta dell'attesa                  stella sfortunata e

  MI-         MI7       LAm7       SI7         MI-      MI-7/DO#
|-------------0-------|---------------------|---------------------|
|-------0---------3-0-|-------1---------0---|-------0---------5---|
|-----0---0-------1---|-----0---0-----2---2-|-----0---0-----4---4-|
|---2-----------2-----|---2---------1-------|---2---------5-------|
|---------------------|-0---------2---------|-----------4---------|
|-0-----------0-------|---------------------|-0-------------------|
  offesa               vivido dolore           malinconia

  DO7+                  LAm7       SI7
|---------------------|----------------2-----||
|-------0---------0---|-------1----------0---||   Intermezzo:(A)
|-----0---0-----0---0-|-----0---0----2-----2-||   poi (B) + (C)
|---2---------2-------|---2------------------||
|-3---------3---------|-0----------2---------||
|---------------------|----------------------||
 chiudi i tuoi cancelli dal mondo           e vai via


Intermezzo (5 volte)
  MI-                   LA9/FA#    SI7/FA       MI-
|---------------------|---------------------|---------------------|
|-------0---------0---|-------0---------0---|-------0---------0---|
|-----0---0-----0---0-|-----2---2-----2---2-|-----0---0-----0---0-|
|---2---------2-------|---2---------1-------|---2---------2-------|
|---------------------|---------------------|---------------------|
|-0---------0---------|-2---------1---------|-0---------0---------|


  LA9/FA#    SI7/FA     DO7+                  SOL
|---------------------|---------------------|---------------------|
|-------0---------0---|-------0---------0---|-------0---------0---|
|-----2---2-----2---2-|-----0---0-----0---0-|-----0---0-----0---0-|
|---2---------1-------|---2---------2-------|---0---------0-------|
|---------------------|-3---------3---------|---------------------|
|-2---------1---------|---------------------|-3---------3---------|

                                               Finale
  MI-7/DO#              DO7+      SI7          MI-
|---------------------|---------------2-----||---0---||
|-------5---------5---|-------0---------0---||---0---||
|-----4---4-----4---4-|-----0---0---2-----2-||---0---||
|---5---------5-------|---2-----------------||---2---||
|-4---------4---------|-3---------2---------||---2---||
|---------------------|---------------------||---0---||

Trascrizione ||Stef@no||
sdello@tin.it


























     
Добавлено: 08.08.2013
Вам также может быть интересно:
Другие материалы по этой песне:
  • Аккорды и текст

Страница создана 08.08.2013
http://primanota.ru/fiorella-mannoia/caterina-e-il-coraggio-chords.htm
Привет, Гость.
Предлагаем пройти революционный курс по гитаре.
Подарок от PrimaNota.Ru, забирай!