PrimaNota.ru - самый крупный в мире бесплатный архив песенных текстов, аккордов, табулатур и нот


Fionn Regan - Moving To Berlin - таба, видео

Регистрация Запомнить меня
Войти через:  Facebook Google Twitter Vk Yandex Mail.ru

Fionn Regan - Moving To Berlin - таба, видео

Печатать
Просмотров: 85
Fionn Regan Moving to Berlin
Lyric are missing sry!

Intro
      
A 
family... 
sell off...

B 
moving to berlin....

C 
?
?

D 
i'm moving to berlin....

E 
bloody...  
stone....

F
moving to berlin....

G
will he come out....
or do you have to...

H
moving to berlin
Ending

Tunning CGCEGC 
 6/4

Intro

||---0---0---0---0---0---0--|---0---0---0---0---0---0--|
||---4---4---4---4---4---4--|---2---2---2---2---2---2--|
||-------------0------------|-------------0------------|
||---------0-------0--------|---------0-------0--------|
||-----0---------------0----|-----0---------------0----|
||-0------------------------|-0------------------------|

 |---0---0---0---0---0---0--|---0---0---0---0---0---0--||
 |---4---4---4---4---4---4--|---2---2---2---2---2---2--||
 |-------------0------------|-----------------0--------||
 |---------0-------0--------|---------0---0-------0----||
 |-----0---------------0----|-----0--------------------||
 |-0------------------------|-0------------------------||


Verse (A,C,E,G)
||---0---0---0---0---0---0--|---0---0---0---0---0---0--|
||---4---4---4---4---4---4--|---2---2---2---2---2---2--|
||-------------0------------|-------------0------------|
||---------0-------0--------|---------0-------0--------|
||-----0---------------0----|-----0---------------0----|
||-0------------------------|-0------------------------|

 |---0---0---0---0---0---0--|---0---0---0---0---0---0--||
 |---4---4---4---4---4---4--|---2---2---2---2---2---2--||
 |-------------0------------|-----------------0--------||
 |---------0-------0--------|---------0---0-------0----||
 |-----0---------------0----|-----0--------------------||
 |-0------------------------|-0------------------------||X2



Chorus(B)
||---2---2---0---2---2---0--|---2---2---2---2---2---2--|
||---0---0---0---0---0---0--|---0---0---0---0---0---0--| 
||-----0---0-------0---0----|---------0---0------------|
||--------------------------|-----0-----------0---2----|
||-2-----------2------------|--------------------------|
||--------------------------|-0------------------------|

 |---0---0---0---0---0---0--|---0---0---0---0---0---0--||
 |---4---4---4---4---4---0--|---2---2---2---2---2---2--||
 |---------0---0-------0----|---------0-------0--------||
 |-----------------0--------|-----0-------0-------0----||
 |-----0--------------------|--------------------------||
 |-0------------------------|-0------------------------||


Chorus(D)
||-------2---2---2---2---2--|---2---2---2---2---2---2--|
||-------0---0---0---0---0--|---0---0---0---0---0---0--|
||-------------0------------|-----0---0-----------0----|
||-0-------0-------0--------|-------------0---2--------|
||-----2---------------2----|-0------------------------|
||--------------------------|--------------------------|

 |---0---0---0---0---0---0--|---0---0---0---0---0---0--|
 |---4---4---4---4---4---0--|---2---2---2---2---2---2--|
 |---------0---0-------0----|---------0-------0--------|
 |-----------------0--------|-----0-------0-------0----|
 |-----0--------------------|--------------------------|
 |-0------------------------|-0------------------------|

 |---0---0---0---0---0---0--|---0---0---0---0---0---0--||
 |---4---4---4---4---4---0--|---2---2---2---2---2---2--||
 |---------0---0-------0----|---------0-------0--------||
 |-----------------0--------|-----0-------0-------0----||
 |-----0--------------------|--------------------------||
 |-0------------------------|-0------------------------||


Chorus(F)
||---2---2---2---2---2---2--|---2---2---2---2---2---2--||
||---0---0---0---0---0---0--|---0---0---0---0---0---0--||
||-----0---0-------0--------|---------0-------0--------||
||-------------0-------0----|-------------0-------2----||
||-2------------------------|-0------------------------||
||--------------------------|--------------------------||


Chorus(H,ending)

||---2---2---2---2---2---2--|---2---2---2---2---2---2--|
||---0---0---0---0---0---0--|---0---0---0---0---0---0--|
||-----0---0---0-------0----|-----0---0-------0--------|
||-----------------0--------|-------------0-------0----|
||-2------------------------|-0------------------------|
||--------------------------|--------------------------|

 |---2---2---2---2---2---2--|---2---2---2---2---2---2--|
 |---0---0---0---0---0---0--|---0---0---0---0---0---0--|
 |-----0---0-------0--------|-----0---0-------0--------|
 |-2------------------------|-0------------------------|
 |--------------------------|--------------------------|
 |--------------------------|--------------------------|

 |-0------------------------||
 |-0------------------------||
 |-0------------------------||
 |-0------------------------||
 |-0------------------------||
 |-0------------------------||
Добавлено: 29.10.2013
Другие материалы по этой песне:

Страница создана 11.06.2013
http://primanota.ru/fionn-regan/moving-to-berlin-chords.htm
Привет, Гость.
Предлагаем пройти революционный курс по гитаре.
Подарок от PrimaNota.Ru, забирай!