PrimaNota.ru - самый крупный в мире бесплатный архив песенных текстов, аккордов, табулатур и нот


Fiona Apple - Left Alone - таба, видео

Регистрация Запомнить меня
Войти через:  Facebook Google Twitter Vk Yandex Mail.ru

Fiona Apple - Left Alone - таба, видео

Печатать
Просмотров: 76
Авторы музыки: Fiona Apple
Авторы текста: Fiona Apple
-------------------------------------------------------------------------------
                             Left Alone - Fiona Apple
-------------------------------------------------------------------------------
Tabbed by:GbaseCom
E-mail:

Tuning:Eb Bb Gb Db Ab Eb
   rif1
e|---------------------------------------------------------------------------|
B|---------------------------------------------------------------------------|
G|---------------------------------------------------------------------------|
D|---2-----1-----0-----------2-----1-----0-----------------------------------|
A|0-----1-----2-----3--4--0-----1-----2-----3--4-----------------------------|
E|---------------------------------------------------------------------------|

   rif2
e|---------------------------------------------------------------------------|
B|---------------------------------------------------------------------------|
G|---------------------------------------------------------------------------|
D|---4-----0-----------0-----4-----0-----------0-----------------------------|
A|------2-----3--4--2-----------2-----3--4--2--------------------------------|
E|2-----------------------2--------------------------------------------------|

   rif3
e|---------------------------------------------------------------------------|
B|---------------------------------------------------------------------------|
G|---------------------------------------------------------------------------|
D|---2-----0-----------0-----2-----0-----------0-----------------------------|
A|------2-----3--4--2-----------2-----3--4--2--------------------------------|
E|3-----------------------3--------------------------------------------------|

rif1(x2),rif2,rif3

rif1
You made your major overtures
                                  rif1       
When you were a sure and orotund mutt
    rif2
And I was still a dewy petal
                         rif3
Rather than a moribund slut
rif1
My love wrecked you
                          rif1
You packed to twirl your skirt at the palace
   rif2
It hurt more than it ought to hurt
                               rif3
I went to work to cultivate a callus

        rif1                      rif1
And now I'm hard,     too hard to know
        F#          F#7-13   F
I don't cry when I'm sad anymore, no no
A          E         F#m
Tears calcify in my tummy
A          E         F#7
Fears go inside a bot-tle

B         D#7           C#m7   E6
How can I ask anyone to love me
     Daug        A#7               D#
When all I do is beg to be left   alone?
// Daug=[xx0332] or [x5433x] //
rif1(x2)

Oh, when I try to love
I can love the same man in the same bed in the same city
But not in the same room, it's a pity, but
Oh, it never bothered me before
Not 'til this guy, what a guy, oh God what a good guy
And I can't even enjoy him


How can I ask anyone to love me
When all I do is beg to be left
When all I do is beg to be left
When all I do is beg to be left
 
Amaj7  G#7    Em6   Bm
Alo -   o   -  o  - one,
Amaj7  G#7    Em6   Bm 
Alo -   o   -  o  - one,
Amaj7  G#7    Em6   Bm
Alo -   o   -  o  - one

rif1(x2)

My ills are reticulate
My woes are granular
The ants weigh more than the elephants
Nothing, nothing is manageable
So, couldn't we skip the valedictories?
I can see a door there:
Shut it and forget my number


How can I ask anyone to love me
When all I do is beg to be left
When all I do is beg to be left
When all I do is beg to be left alone

******
Добавлено: 06.08.2015
Другие материалы по этой песне:
  • Аккорды и текст

Страница создана 06.08.2015
http://primanota.ru/fiona-apple/left-alone-chords.htm
Привет, Гость.
Предлагаем пройти революционный курс по гитаре.
Подарок от PrimaNota.Ru, забирай!