PrimaNota.ru - самый крупный в мире бесплатный архив песенных текстов, аккордов, табулатур и нот


Finley - Siren - бас-таба, видео

Регистрация Запомнить меня
Войти через:  Facebook Google Twitter Vk Yandex Mail.ru

Finley - Siren - бас-таба, видео

Печатать
Просмотров: 205
Уроки эстрадного вокала в Санкт-Петербурге
----------------------------------------------------------------------------

                                 Finley - Siren

                                    Bass tab
----------------------------------------------------------------------------
Tabbed By : Meangirl
Tuning: Standard


intro

G|---------------------|
D|---------------------|
A|-6-------------------|  
E|---------------------|

G|---------------------|
D|---------------------|
A|-666666--2222--1--2--|  
E|---------------------|

G|---------------------|
D|---------------------|
A|-666666--2222--1-2-4-|  
E|---------------------|

G|---------------------|
D|---------------------|
A|-666666--2222--1--2--| 
E|---------------------|

G|---------------------|
D|---------------------|
A|-666666--2-----------|  
E|---------------------|

verse 1

G|------------------------------|
D|--------------------------4---|
A|--6--6--2--2--6--6--2--1------|  x2
E|------------------------------|


pre chorus

G|-----------------------------------------|
D|--------------------------------4-3------|
A|--66666666--22222222--44444444------4----|   
E|-----------------------------------------|

G|-----------------------------------------|
D|--------------------------------4--------|
A|--66666666--22222222--44444444-----------|   
E|-----------------------------------------|

chorus

G|--------------------|
D|--------------------|
A|-6--2-2-----4-4-----| x2
E|---------2----------|


G|---------------------------------|
D|---------------------------------|
A|-666666--222222----------4444444-|
E|-----------------222222----------|

G|------------------/3-3--1-----|
D|---------4444444--------------|
A|-666666-----------------------|
E|------------------------------|



intro 2

G|---------------------|
D|---------------------|
A|-666666--2222--1--2--|  
E|---------------------|

G|---------------------|
D|---------------------|
A|-666666--2222--1-2-4-|  
E|---------------------|

G|---------------------|
D|---------------------|
A|-666666--2222--1--2--| 
E|---------------------|

G|---------------------|
D|---------------------|
A|-666666--2-----------|  
E|---------------------|


G|-----/6--3-----------|
D|--4------------------|
A|---------------------|  
E|---------------------|



verse 1

with slap


G|--------------------------------------------|
D|-------------9-x-9-x-9x--------------4-x--6-|
A|--6-x-6-x-6-------------6-x-6-x-6-----------|  
E|--------------------------------------------|


pre chorus

G|-----------------------------------------|
D|--------------------------------4-3------|
A|--66666666--22222222--44444444------4----|   
E|-----------------------------------------|

G|-----------------------------------------|
D|--------------------------------4--------|
A|--66666666--22222222--44444444-----------|   
E|-----------------------------------------|

chorus

G|--------------------|
D|--------------------|
A|-6--2-2-----4-4-----| x2
E|---------2----------|


G|------------------33333--11---|
D|---------4444444--------------|
A|-666666-----------------------|  
E|------------------------------|

G|------------------3-3---1-----|
D|---------4444444--------------|
A|-666666-----------------------|  
E|------------------------------|


Bridge

G|------------------------|
D|-1----------------------|
A|----1-2-----------------| x4
E|------------------------|

G|---------------------|
D|-1-1-1---------------|
A|--------2-2-2--------| x2
E|---------------------|

G|------------------------|
D|-11111111---------------|
A|-----------22222222-----| x2
E|------------------------|


chorus

G|--------------------|
D|--------------------|
A|-6--2-2-----4-4-----| x2
E|---------2----------|

G|------------------33333--11---|
D|---------4444444--------------|
A|-666666-----------------------|  
E|------------------------------|

G|------------------3-3---1-----|
D|---------4444444--------------|
A|-666666-----------------------|  
E|------------------------------|


G|-----------------------------------------|
D|--------------------------------4-3------|
A|--66666666--22222222--44444444------4----|   
E|-----------------------------------------|

G|-----------------------------------------|
D|--------------------------------44--44---|
A|--66666666--22222222--44444444-----------|   
E|-----------------------------------------|



Добавлено: 15.04.2012
Другие материалы по этой песне:
  • Аккорды и текст

Страница создана 15.04.2012
http://primanota.ru/finley/siren-chords.htm
Привет, Гость.
Предлагаем пройти революционный курс по гитаре.
Подарок от PrimaNota.Ru, забирай!