PrimaNota.ru - самый крупный в мире бесплатный архив песенных текстов, аккордов, табулатур и нот


Finley - In My Arms Again - бас-таба, видео

Регистрация Запомнить меня
Войти через:  Facebook Google Twitter Vk Yandex Mail.ru

Finley - In My Arms Again - бас-таба, видео

Печатать
Просмотров: 125
Уроки эстрадного вокала в Санкт-Петербурге
--------------------------------------------------------------------------

                           Finley - In my arms again

                                  Bass tab
--------------------------------------------------------------------------
Tabbed By : Meangirl
Tuning: Standard



Verse 1 

G|-----------------------------------------------------|
D|-----------------------------------------------------|
A|--11----11--10--8----8--6--4----4--8--6----6--10--11-|   x2
E|-----------------------------------------------------|


chorus 
G|-----------------------------------------------------------|          
D|-----------------------------------------------------------|
A|------------------------------44444444444444--666666666666-|  x2
E|--444444444444--111111111111-------------------------------|

G|---------------------------------|          
D|---------------------------------|
A|---------------------------------|
E|--444444444444--111111111111--11-|


Verse 2 

G|--------------------------------------------------|
D|--------------------------------------------------|
A|--11--10--8----8--6--4----4--8--6----6--10--11----|   x1
E|--------------------------------------------------|


chorus 

G|-----------------------------------------------------------|          
D|-----------------------------------------------------------|
A|------------------------------44444444444444--666666666666-| x1
E|--444444444444--111111111111-------------------------------|



G|---------------------------------|          
D|---------------------------------|
A|---------------------------------|
E|--444444444444--111111111111--11-|


Bridge 

G|--------------/13-12------------------------------------------|
D|------/13-11----------13-10--131313--11-10--------------------|
A|--------------------------------------------11-/1313-11--13---|
E|--------------------------------------------------------------|

G|--/13-15-17-15-15-13-13-12-12-13-----|
D|-------------------------------------|
A|-------------------------------------|
E|-------------------------------------|

("....I could have been more concrete...")  2:25
G|-----------------------------------------------------------------------|
D|-----------------------------------------------------------------------|
A|-------------------4444444444444444------------------66666666666-7777--|x1
E|--1111111111111111------------------4444444444444444-------------------|

G|-----------------------------------------------------------------------|
D|-----------------------------------------------------------------------|
A|-------------------4444444444444444------------------66666666666-7777--|x2
E|--1111111111111111------------------4444444444444444-------------------|



G|-----------------------------------------------------------|          
D|-----------------------------------------------------------|
A|------------------------------44444444444444--666666666666-|  
E|--444444444444--111111111111-------------------------------|

G|-------|          
D|-------|
A|-------|
E|--4----|

Добавлено: 22.06.2012
Другие материалы по этой песне:
  • Аккорды и текст

Страница создана 22.06.2012
http://primanota.ru/finley/in-my-arms-again-chords.htm
Привет, Гость.
Предлагаем пройти революционный курс по гитаре.
Подарок от PrimaNota.Ru, забирай!