PrimaNota.ru - самый крупный в мире бесплатный архив песенных текстов, аккордов, табулатур и нот


Fink - Wheels - таба, видео

Регистрация Запомнить меня
Войти через:  Facebook Google Twitter Vk Yandex Mail.ru

Fink - Wheels - таба, видео

Печатать
Просмотров: 91
Tabbed by: MikeTino
Email: miketino23@gmail.com

So the actual song is in DADGAD, although you don't really need to be in full DADGAD, 
Drop D should suffice.


D|---------------------------------------------------------------------------------------------|
A|---------------------------------------------------------------------------------------------|
G|---------------------------------------------------------------------------------------------|
D|--------------------------------------------------------------3p0----------------------------|
A|----5--3h5-3h5-3h5----3h5-3h5-3h5----3h5-3h5-3h5--3-3----------------------------------------|
D|-0-----0---0---0------0---0---0------0---0---0--------0h3p0-0--------------------------------|


D|---------------------------------------------------------------------------------------------|
A|---------------------------------------------------------------------------------------------|
G|---------------------------------------------------------------------------5-7-5-------------|
D|--------------------------------------------------------------3p0------5/7-------7\5-3-5-3p0-|
A|-3h5---3h5-3h5-3h5----3h5-3h5-3h5----3h5-3h5-3h5--3-3-------------3h5------------------------|
D|-0-----0---0---0------0---0---0------0---0---0--------0h3p0-0-----0--------------------------|


D|---------------------------------------------------------------------------------------------|
A|---------------------------------------------------------------------------------------------|
G|---------------------------------------------------------------------------------------------|
D|---------------------------5p0-----3p0-------------------------------------------------------|
A|-3h5---3h5-3h5-3h5-3-3-----------------------------------------------------------------------|
D|-0-----0---0---0-------0h3-----3p0-----------------------------------------------------------|

These first 3 riffs are the majority of the song, play along with the song and you'll 
get a feel for the
  order of things, and get comfortable with the groove of the song.


Ending

D|-----------------------------------------------------------------------------------------------|
A|-----------------------------------------------------------------------------------------------|
G|-----------------------------------------------------------------------------------------------|
D|---------3p0----------3p0----------3p0----------3p0----------3p0----------3p0-------------3b---| (Slow bend)
A|-----------------------------------------------------------------------------------------------|
D|-0p5p3p0------0p5p3p0------0p5p3p0------0p5p3p0-------0p5p3p0-------0p5p3p0-------0p5p3p0------|
Добавлено: 14.02.2016
Другие материалы по этой песне:
  • Аккорды и текст

Страница создана 14.02.2016
http://primanota.ru/fink/wheels-chords.htm
Привет, Гость.
Предлагаем пройти революционный курс по гитаре.
Подарок от PrimaNota.Ru, забирай!