PrimaNota.ru - самый крупный в мире бесплатный архив песенных текстов, аккордов, табулатур и нот


Fink - Nothing Is Ever Finished - таба, видео

Регистрация Запомнить меня
Войти через:  Facebook Google Twitter Vk Yandex Mail.ru

Fink - Nothing Is Ever Finished - таба, видео

Печатать
Просмотров: 164
Fink
Nothing Is Ever Finished
(an interpretation in standard tuning by rifewithdisease)


6/8 probably

Play fast with fingers, palm-mute low E string rhythmically on each
beat. The beauty of playing it without a pick is that you can make
each phrase sound much busier than it truly is by hitting open notes
strategically. You might also find yourself more readily able to
alternate to fingerpicking in at least one small section of the song.

Here we go:


Intro / Verse

1st section

e| |-------------| |    | |-------------| |    | |-------------| |
b| |-------------| |    | |-------------| |    | |-------------| |
g|o|-------------|o|    |o|-------------|o|    |o|-------------|o|
d|o|-2---------2-|o| x4 |o|-0---------0-|o| x2 |o|-0---------0-|o| x2
a| |-2---2-0h2---| |    | |-2---2-0h2---| |    | |-4---4-0h4---| |
e| |-0---0---0---| |    | |-3---3---3---| |    | |-5---5---5---| |

e|1|-------------------------------------------------| |
b|1|-------------------------------------------------| |
g|1|-------------------------------------------------| |
d|1|-0-----------0-----------5-----4-----2-----x-----| |
a|1|-4-----4---4\2-----2---2-x---x---x---x---x-5-x---| |
e|1|-0---0---0---0---0---0---0---0---0---0---0---0---| |

e| |-------------------------------------------------|1|
b| |-------------------------------------------------|1|
g| |-0---------0-0---------0-0---------0-0---------0-|1|
d| |-0-----0-----0-----0-----0-----0-----0-----0-----|1|
a| |-x---x---x---x---x---x---x---x---x---x---x---x---|1|
e| |-7---7---7---7---7---7---5---5---5---5/7-7---7---|1|

2nd section

e| |-------------| |    | |-------------| |    | |-------------| |
b| |-------------| |    | |-------------| |    | |-------------| |
g|o|-------------|o|    |o|-------------|o|    |o|-------------|o|
d|o|-2---------2-|o| x4 |o|-0---------0-|o| x2 |o|-0---------0-|o| x2
a| |-2---2-0h2---| |    | |-2---2-0h2---| |    | |-4---4-0h4---| |
e| |-0---0---0---| |    | |-3---3---3---| |    | |-5---5---5---| |

e|2|-------------0~~~~~~~~~~~------------------------| |
b|2|---------0~~~~~~~~~~~~~~~------------------------| |
g|2|-----0~~~~~~~~~~~~~~~~~~~------------------------| |
d|2|-------------------------5-----4-----2-----x-----| |
a|2|-4~~~~~~~~~~~2-----2---2-x---x---x---x---x-5-x---| |
e|2|-0~~~~~~~~~~~0---0---0---0---0---0---0---0---0---| |

e| |-------------------------------------------------|2|
b| |-------------------------------------------------|2|
g| |-0---------0-0---------0-0---------0-0---------0-|2|
d| |-0-----0-----0-----0-----0-----0-----0-----0-----|2|
a| |-x---x---x---x---x---x---x---x---x---x---x---x---|2|
e| |-7---7---7---7---7---7---5---5---5---5/7-7---7---|2|


Bridge


e| |-------------| |    |-------------|
b| |-0-----0-----| |    |-0-----0-----|
g|o|-0---------0-|o|    |-0---------0-|
d|o|-2---2---2---|o| x3 |-2/4-4---4---|
a| |-3---3---3---| |    |-3/5-5---5---|
e| |-------------| |    |-------------|

e| |-------------| |    |-------------------------|
b| |-------------| |    |-------------------------|
g|o|-0---------0-|o|    |-0---------0-------------|
d|o|-0-----0-----|o| x2 |-0-----0-----------------|
a| |-2---2---2---| |    |-2---2---2---0---0---0---|
e| |-3---3---3---| |    |-2---2---2---2---0---0---|


e| |-------------| |    |-------------|
b| |-0-----0-----| |    |-0-----0-----|
g|o|-0---------0-|o|    |-0---------0-|
d|o|-2---2---2---|o| x3 |-2/4-4---4---|
a| |-3---3---3---| |    |-3/5-5---5---|
e| |-------------| |    |-------------|

e| |-------------| |    |-------------------------|
b| |-------------| |    |-------------------------|
g|o|-0---------0-|o|    |-0---------0-------------|
d|o|-0-----0-----|o| x2 |-0-----0-----------------|
a| |-2---2---2---| |    |-2---2---2---0---0---0---|
e| |-3---3---3---| |    |-2---2---2---2---0---0---|


e| |-------------| |    |-------------|
b| |-0-----0-----| |    |-0-----0-----|
g|o|-0---------0-|o|    |-0---------0-|
d|o|-2---2---2---|o| x3 |-2/4-4---4---|
a| |-3---3---3---| |    |-3/5-5---5---|
e| |-------------| |    |-------------|


Chorus


e| |-------------------------------------------------|
b| |-------------------------------------------------|
g|o|-------------------------------------------------|
d|o|-2---------2-2---------2/5-----4-----2-----x-----|
a| |-2-----0h2---2-----0h2---x---x---x---x---5-3-x---|
e| |-0---0---0---0---0---0---0---0---0---0---0---0---|

e----------------------------------------------------| |
b----------------------------------------------------| |
g----0---------0-0---------0-0-----------0---0-------|o|
d----0-----0-----0-----0-----0---0---0---0---0---0---|o|
a----2---2---2---2---2---2---4---4---4---4---4---4---| | x3
e----3---3---3---3---3---3---5---5---5---5---5---5---| |
                             nothing is ever finished


Post-Chorus / Pre-verse


e| |-------------------------| |
b| |-------------------------| |
g|o|-0-----0---0-0-----0---0-|o|
d|o|-0-----0---0-0-----0---0-|o|
a| |-2---2---2---2/4-4---4-x-| | x4
e| |-3---3---3---3/5-5---5-x-| |


So:

That's the song. Or at least my interpretation of it.
If you know the structure, all should be well.

As something of a 'bonus feature' of this interpretation;
once you have the tab flowing through your fingers,
here are the rough chords and lyrics:


Em              G      A      
     Baby blue,     it really kinda suits you.

Em                        G            A      G  Em~~~
     Maybe it's just your eyes, or the nights   alone.

Em      G      A                          Em        G       A   G
     Daisy,    took the ring right off my finger.

Em               G     A     
     Baby blue,        look what they did to you.

Em                   G          A  G    Em~~~
     Maybe it's a disguise, for my eyes only.

Em      G      A                     Em         G      A   G
     Daisy,    destiny's pulling the trigger.

Em/C     G7Maj    G        G/F#          Em
     Tempta-------tion, it happens to everyone.

Em/C     G7Maj    G        G/F#            Em       Em/C    G7Maj     
     Tempta-------tion,    wipe that smile off your face.

Em   Em   G   A
              Nothing is ever finished. (x3)

G   A   G   A   G   A   G   A

Em              G      A 
     Baby blue,      I really wanna kiss you.

Em                              G       A   G
     But I'm not sure if that's wise.

Em      G         A                         Em~~
     Daisy, don't tell me you don't want it too,

Em                     G        A   G
     Such a naughty surprise.

Em/C     G7Maj    G        G/F#          Em
     Tempta-------tion, it happens to everyone.

Em/C     G7Maj    G        G/F#            Em       Em/C    G7Maj     
     Tempta-------tion,    wipe that smile off your face.

Em   Em   G   A
              Nothing is ever finished. (x5)

G   A   G   A   G   A   G   A


To close: Em or fade-out, either would be fine.

Best of luck.
Добавлено: 27.11.2013
Другие материалы по этой песне:
  • Аккорды и текст

Страница создана 26.07.2013
http://primanota.ru/fink/nothing-is-ever-finished-chords.htm
Привет, Гость.
Предлагаем пройти революционный курс по гитаре.
Подарок от PrimaNota.Ru, забирай!