PrimaNota.ru - самый крупный в мире бесплатный архив песенных текстов, аккордов, табулатур и нот


Fink - Little Blue Mailbox - текст песни, таба, видео

Регистрация Запомнить меня
Войти через:  Facebook Google Twitter Vk Yandex Mail.ru

Fink - Little Blue Mailbox - текст песни, таба, видео

Печатать
Просмотров: 326
Cocorico!
Fink - "Little blue mailbox"
tab by nainportnaoak (Big up JC, Jux et Terech!)
Tunning : dgcfad (avec guitar pro :d4 g3 c4 f4 a4 d5)

Ce n'est pas parfait, mais je la joue comme ça et je prend mon pied héhé.
(it's not perfect but I play it like this. have fun ;)

(Intro)

d---------------------------------|
a---------------0-----------------|
f-----0--2---------2--------------|  X ?
c--2--------2---------------------|
g---------------------------------|
d---------------------------------|

(0'12)

d----------------------------------------|
a--------0-------0--------0-------0------|
f-----4--------4-------4--------4--------|     X2
c--2--------2-------2--------2-----------|
g----------------------------------------|
d----------------------------------------|


d------------------------------------------------------------------------|
a---------------0----------------0-----------------0----------------0----|
f-----0--2---------2-----0--2------2------0--2-------2-----0--2-------2--|
c-----------2------------------2----------------2----------------2-------|
g-0-------------------0--------------------------------------------------|
d--------------------------------------3-----------------3---------------|

(2'37)

d-------------                           d--------------------------|
a-------------                           a--------------------------|
f------------- (X? Attention au rythme!) f--12--12---------11--11---|
c--9-9-9-9---                            c--12--12 (x?)----11--11---|
g--7-7-7-7---                            g--9---9----------7---7----|
d--x-x-x-x---                            d--x---x----------x---x----|

(3'20)

d-------------                                    d--------------------------|
a-------------                                    a--2--2---------3--3-------|
f------------- (X? Attention au rythme!)          f--2--2---------4--4-------|
c--9-9-9-9---                                     c--2--2---(X?)--5--5-------|(X?)
g--7-7-7-7---                                     g---------------5--5-------|
d--x-x-x-x---                                     d---------------3--3-------|
Добавлено: 05.05.2012
Другие материалы по этой песне:
  • Аккорды и текст

Страница создана 05.05.2012
http://primanota.ru/fink/little-blue-mailbox-chords.htm
Привет, Гость.
Предлагаем пройти революционный курс по гитаре.
Подарок от PrimaNota.Ru, забирай!