PrimaNota.ru - самый крупный в мире бесплатный архив песенных текстов, аккордов, табулатур и нот


Fink - All Cried Out - текст песни, таба, видео

Регистрация Запомнить меня
Войти через:  Facebook Google Twitter Vk Yandex Mail.ru

Fink - All Cried Out - текст песни, таба, видео

Печатать
Просмотров: 325
Уроки эстрадного вокала в Санкт-Петербурге
Авторы: Steve Jolley, Alison Moyet, Tony Swain

FINK - ALL CRIED OUT

Hi,
since this one hasn't been tabbed yet, i thought, i'd give it a try... it's not 100% accurate,
i know, but i guess it'll be alright to get started..
it's a bit of a mix of fink's video tab (http://www.youtube.com/watch?v=Q59qKZ-YTig) and the
album version..
Listen to the song for timing, etc...

Tuning is DADGAD.

Cheers,
Bene


FINK - ALL CRIED OUT


INTRO

D |---------x---------x---------x---------x---------x---------x---------x---------x-|
A |---------x---------x---------x---------x---------x---------x---------x------0--x-|
G |---2-----x---0h2-0-x-0-------x------0--x---------x---------x---------x---------x-|
D |---0-----x---0---0-x-0-------x---0-----x---5-----x---5-----x-----5---x-8-------x-|
A |---------x---------x-1-------x-1-------x---5-----x---------x---5-----x-8-------x-|
D |---0-----x-0-------x---------x---------x-5-------x-5-------x-5-------x-8-------x-|


D |---------x---------x---------x---------x---------x---------x---------x---------x-|
A |---------x----3p0--x---------x------0--x---------x---------x---------x------0--x-|
G |---2-----x---------x-2-------x---------x--0------x------0--x------0--x---------x-|
D |---0-----x---------x-0-------x---0-----x--0------x---0-----x---0--2--x-8-------x-|
A |---------x---------x---------x---------x---------x---------x---------x-8-------x-|
D |-0-------x-0-------x-3-------x-3-------x--3------x-3-------x-3-------x-8-------x-|


D |---------x---------x---------x---------x---------x---------x---------x---------x-|
A |---------x---------x---------x------0--x---------x---------x---------x---------x-|
G |---2-----x---2p0---x-0-------x------0--x---0-----x---------x-0-------x-----0---x-|
D |---0-----x---0-----x-0-------x---0-----x---2-----x---2~----x-2-------x---2-----x-|
A |---------x---------x-1-------x-1-------x-3-------x-3-------x-2-------x-2-------x-|
D |-0-------x-0-------x---------x---------x---------x---------x---------x---------x-|


D |---------x---------x---------x---------x---------x---------x---------x---------x-|
A |---------x---------x---------x---------x---------x---------x---------x---------x-|
G |---0-----x---0---0-x---------x---------x---------x---------x---------x---------x-|
D |---3-----x---3---2-x-5-------x-----5---x---7-----x-7-7-----x-7----7--x-5----3--x-|
A |---1-----x-1-------x-5-------x---5-----x---7-----x-7-7-----x-7----7--x-5----3--x-|
D |---------x---------x-5-------x-5-------x-7-------x-7-7-----x-7----7--x-5----3--x-|


VERSE (x2)

D |---------x---------x---------x---------x---------x---------x---------x---------x-|
A |---------x---------x---------x---------x---------x---------x---------x------0--x-|
G |---2-----x---0h2-0-x-0-------x------0--x---------x---------x---------x---------x-|
D |---0-----x---0---0-x-0-------x---0-----x---5-----x---5-----x-----5---x-8-------x-|
A |---------x---------x-1-------x-1-------x---5-----x---------x---5-----x-8-------x-|
D |-0-------x-0-------x---------x---------x-5-------x-5-------x-5-------x-8-------x-|


D |---------x---------x---------x---------x---------x---------x---------x---------x-|
A |---------x----3p0--x---------x------0--x---------x---------x---------x------0--x-|
G |---2-----x---------x-2-------x---------x--0------x------0--x------0--x---------x-|
D |---0-----x---------x-0-------x---0-----x--0------x---0-----x---0--2--x-8-------x-|
A |---------x---------x---------x---------x---------x---------x---------x-8-------x-|
D |-0-------x-0-------x-3-------x-3-------x--3------x-3-------x-3-------x-8-------x-|


D |---------x---------x---------x---------x---------x---------x---------x---------x-|
A |---------x---------x---------x------0--x---------x---------x---------x---------x-|
G |---2-----x---2p0---x-0-------x------0--x---0-----x---------x-0-------x-----0---x-|
D |---0-----x---0-----x-0-------x---0-----x---2-----x---2~----x-2-------x---2-----x-|
A |---------x---------x-1-------x-1-------x-3-------x-3-------x-2-------x-2-------x-|
D |-0-------x-0-------x---------x---------x---------x---------x---------x---------x-|


D |---------x---------x---------x---------x---------x---------x---------x---------x-|
A |---------x---------x---------x---------x---------x---------x---------x---------x-|
G |---0-----x---0---0-x---------x---------x---------x---------x---------x---------x-|
D |---3-----x---3---2-x-5-------x-----5---x---7-----x-7-7-----x-7----7--x-5----3--x-|
A |---1-----x-1-------x-5-------x---5-----x---7-----x-7-7-----x-7----7--x-5----3--x-|
D |---------x---------x-5-------x-5-------x-7-------x-7-7-----x-7----7--x-5----3--x-|



CHORUS

D |---------x---------x---------x---------x---------x---------x---------x---------x-|
A |---------x---------x---------x---------x---------x---------x---------x---------x-|
G |---2-----x-2-2-----x-2----2--x-2-2-2---x---------x---------x---------x---------x-|
D |---0-----x-0-0-----x-0----0--x-0-0-0---x-0-3-----x-3-3-----x-3/5--5--x-5----3--x-|
A |---------x---------x---------x---------x-0-3-----x-3-3-----x-3/5--5--x-5----3--x-|
D |-0-------x-0-0-----x-0----0--x-0-0-0---x-0-3-----x-3-3-----x-3/5--5--x-5----3--x-|


D |---------x---------x---------x---------x---------x---------x---------x---------x-|
A |---------x---------x---------x---------x---------x---------x---------x---------x-|
G |---2-----x-2-2-----x-2----2--x-2-2-2---x---------x---------x---------x---------x-|
D |---0-----x-0-0-----x-0----0--x-0-0-0---x-0-3-----x-3-3-----x-3/5--5--x-5----3--x-|
A |---------x---------x---------x---------x-0-3-----x-3-3-----x-3/5--5--x-5----3--x-|
D |-0-------x-0-0-----x-0----0--x-0-0-0---x-0-3-----x-3-3-----x-3/5--5--x-5----3--x-|


BRIDGE/SOLO

D |---------x---------x---------x-------------------x---------x---------------------|
A |---------x---------x---------x-------------------x---------x------0--------------|
G |---2-----x---------x-2~------x-------------------x---------x---------------------|
D |---0-----x-3-------x-0-------x-3-----------------x-----3---x-5-------5-5-3-2-0---|
A |---------x---5-3---x---------x---5-3-0-----------x---3-----x-5-----------------3-|
D |-0-------x---------x-0-------x---------5-3-------x-3-------x-5-------------------|


D |---------x---------x-----------------------------x---------x---------x---------x-|
A |---------x---------x-----------------------------x---------x---------x------0--x-|
G |-2~------x-----2---x-5/7----5--------------------x---------x-----0---x---------x-|
D |-0-------x---0-----x-----------5-3---------------x-----3---x---0-1---x-8-------x-|
A |---------x---------x----------------5-5-3-0------x---3-----x---------x-8-------x-|
D |---------x-0-------x------------------------3----x-3-------x-3-------x-8-------x-|


VERSE (x1)

D |---------x---------x---------x---------x---------x---------x---------x---------x-|
A |---------x---------x---------x---------x---------x---------x---------x------0--x-|
G |---2-----x---0h2-0-x-0-------x------0--x---------x---------x---------x---------x-|
D |---0-----x---0---0-x-0-------x---0-----x---5-----x---5-----x-----5---x-8-------x-|
A |---------x---------x-1-------x-1-------x---5-----x---------x---5-----x-8-------x-|
D |-0-------x-0-------x---------x---------x-5-------x-5-------x-5-------x-8-------x-|


D |---------x---------x---------x---------x---------x---------x---------x---------x-|
A |---------x----3p0--x---------x------0--x---------x---------x---------x------0--x-|
G |---2-----x---------x-2-------x---------x--0------x------0--x------0--x---------x-|
D |---0-----x---------x-0-------x---0-----x--0------x---0-----x---0--2--x-8-------x-|
A |---------x---------x---------x---------x---------x---------x---------x-8-------x-|
D |-0-------x-0-------x-3-------x-3-------x--3------x-3-------x-3-------x-8-------x-|


D |---------x---------x---------x---------x---------x---------x---------x---------x-|
A |---------x---------x---------x------0--x---------x---------x---------x---------x-|
G |---2-----x---2p0---x-0-------x------0--x---0-----x---------x-0-------x-----0---x-|
D |---0-----x---0-----x-0-------x---0-----x---2-----x---2~----x-2-------x---2-----x-|
A |---------x---------x-1-------x-1-------x-3-------x-3-------x-2-------x-2-------x-|
D |-0-------x-0-------x---------x---------x---------x---------x---------x---------x-|


D |---------x---------x---------x---------x---------x---------x---------x---------x-|
A |---------x---------x---------x---------x---------x---------x---------x---------x-|
G |---0-----x---0---0-x---------x---------x---------x---------x---------x---------x-|
D |---3-----x---3---2-x-5-------x-----5---x---7-----x-7-7-----x-7----7--x-5----3--x-|
A |---1-----x-1-------x-5-------x---5-----x---7-----x-7-7-----x-7----7--x-5----3--x-|
D |---------x---------x-5-------x-5-------x-7-------x-7-7-----x-7----7--x-5----3--x-|



CHORUS

D |---------x---------x---------x---------x---------x---------x---------x---------x-|
A |---------x---------x---------x---------x---------x---------x---------x---------x-|
G |---2-----x-2-2-----x-2----2--x-2-2-2---x---------x---------x---------x---------x-|
D |---0-----x-0-0-----x-0----0--x-0-0-0---x-0-3-----x-3-3-----x-3/5--5--x-5----3--x-|
A |---------x---------x---------x---------x-0-3-----x-3-3-----x-3/5--5--x-5----3--x-|
D |-0-------x-0-0-----x-0----0--x-0-0-0---x-0-3-----x-3-3-----x-3/5--5--x-5----3--x-|


D |---------x---------x---------x---------x---------x---------x---------x---------x-|
A |---------x---------x---------x---------x---------x---------x---------x---------x-|
G |---2-----x-2-2-----x-2----2--x-2-2-2---x---------x---------x---------x---------x-|
D |---0-----x-0-0-----x-0----0--x-0-0-0---x-0-3-----x-3-3-----x-3/5--5--x-5----3--x-|
A |---------x---------x---------x---------x-0-3-----x-3-3-----x-3/5--5--x-5----3--x-|
D |-0-------x-0-0-----x-0----0--x-0-0-0---x-0-3-----x-3-3-----x-3/5--5--x-5----3--x-|


BRIDGE/SOLO

D |---------x---------x---------x-------------------x---------x---------------------|
A |---------x---------x---------x-------------------x---------x------0--------------|
G |---2-----x---------x-2~------x-------------------x---------x---------------------|
D |---0-----x-3-------x-0-------x-3-----------------x-----3---x-5-------5-5-3-2-0---|
A |---------x---5-3---x---------x---5-3-0-----------x---3-----x-5-----------------3-|
D |-0-------x---------x-0-------x---------5-3-------x-3-------x-5-------------------|


D |---------x---------x-----------------------------x---------x---------x---------x-|
A |---------x---------x-----------------------------x---------x---------x------0--x-|
G |-2~------x-----2---x-5/7----5--------------------x---------x-----0---x---------x-|
D |-0-------x---0-----x-----------5-3---------------x-----3---x---0-1---x-8-------x-|
A |---------x---------x----------------5-5-3-0------x---3-----x---------x-8-------x-|
D |---------x-0-------x------------------------3----x-3-------x-3-------x-8-------x-|

BRIDGE 2

D |---------x---------x---------x---------x---------x---------x---------x---------x-|
A |---------x---------x---------x---------x---------x---------x---------x---------x-|
G |---2-----x-2-2-----x-2----2--x-2-2-2---x---------x---------x---------x---------x-|
D |---0-----x-0-0-----x-0----0--x-0-0-0---x-0-3-----x-3-3-----x-3/5--5--x-5----3--x-|
A |---------x---------x---------x---------x-0-3-----x-3-3-----x-3/5--5--x-5----3--x-|
D |-0-------x-0-0-----x-0----0--x-0-0-0---x-0-3-----x-3-3-----x-3/5--5--x-5----3--x-|


D |---------x---------x---------x---------x---------x---------x---------x---------x-|
A |---------x---------x---------x---------x---------x---------x---------x---------x-|
G |---2-----x-2-2-----x-2----2--x-2-2-2---x---------x---------x---------x---------x-|
D |---0-----x-0-0-----x-0----0--x-0-0-0---x-0-3-----x-3-3-----x-3/5--5--x-5----3--x-|
A |---------x---------x---------x---------x-0-3-----x-3-3-----x-3/5--5--x-5----3--x-|
D |-0-------x-0-0-----x-0----0--x-0-0-0---x-0-3-----x-3-3-----x-3/5--5--x-5----3--x-|


D |---------x---------x---------x---------x---------x---------x---------x---------x-|
A |---------x---------x---------x---------x---------x---------x---------x---------x-|
G |---2-----x-2-2-----x-2----2--x-2-2-2---x---------x---------x---------x---------x-|
D |---0-----x-0-0-----x-0----0--x-0-0-0---x-0-3-----x-3-3-----x-3/5--5--x-5----3--x-|
A |---------x---------x---------x---------x-0-3-----x-3-3-----x-3/5--5--x-5----3--x-|
D |-0-------x-0-0-----x-0----0--x-0-0-0---x-0-3-----x-3-3-----x-3/5--5--x-5----3--x-|
 

D |---------x---------x---------x---------x---------x---------x---------x---------x-|
A |---------x---------x---------x---------x---------x---------x---------x---------x-|
G |---2-----x-2-2-----x-2----2--x-2-2-2---x---------x---------x---------x---------x-|
D |---0-----x-0-0-----x-0----0--x-0-0-0---x-0-3-----x-3-3-----x-3/5--5--x-5-5-----x-|
A |---------x---------x---------x---------x-0-3-----x-3-3-----x-3/5--5--x-5-5-----x-|
D |-0-------x-0-0-----x-0----0--x-0-0-0---x-0-3-----x-3-3-----x-3/5--5--x-5-5-----x-| 




D |---------x---------x---------x---------x---------x---------x---------x---------x-|
A |---------x---------x---------x---------x---------x---------x---------x---------x-|
G |---------x---------x---------x---------x---------x---------x---------x---------x-|
D |---8-----x-8-8-7---x-5-------x-----5---x---7-----x-7-7-----x-7----7--x-5----3--x-|
A |---8-----x-8-8-7---x-5-------x---5-----x---7-----x-7-7-----x-7----7--x-5----3--x-|
D |---8-----x-8-8-7---x-5-------x-5-------x---7-----x-7-7-----x-7----7--x-5----3--x-|


D |---------x---------x---------x-------------------x---------x---------x---------x-|
A |---------x---------x---------x-------------------x---------x---------x---------x-|
G |---2-----x---------x-2~------x-------------------x---------x---------x---------x-|
D |---0-----x-3-------x-0-------x-3-----------------x-----3---x-3/5--5--x-5----3--x-|
A |---------x---5-3---x---------x---5-3-0-----------x---3-----x-3/5--5--x-5----3--x-|
D |-0-------x---------x-0-------x---------5-3-------x-3-------x-3/5--5--x-5----3--x-|


D |---------x---------x-----------------------------x---------x---------x---------x-|
A |---------x---------x-----------------------------x---------x---------x---------x-|
G |---2~----x-----2---x-5/7----5--------------------x---------x---------x---------x-|
D |---0-----x---0-----x-----------5-3---------------x-----3---x-3/5--5--x-5----3--x-|
A |---------x---------x----------------5-5-3-0------x---3-----x-3/5--5--x-5----3--x-|
D |-0-------x-0-------x------------------------3----x-3-------x-3/5--5--x-5----3--x-|

Finale

D |---------x---------x---------x---------x---------x---------x---------x---------x-|
A |---------x---------x---------x---------x---------x---------x---------x---------x-|
G |---2-----x-2-2-----x-2----2--x-2-2-2---x---------x---------x---------x---------x-|
D |---0-----x-0-0-----x-0----0--x-0-0-0---x-0-3-----x-3-3-----x-3/5--5--x-5----3--x-|
A |---------x---------x---------x---------x-0-3-----x-3-3-----x-3/5--5--x-5----3--x-|
D |-0-------x-0-0-----x-0----0--x-0-0-0---x-0-3-----x-3-3-----x-3/5--5--x-5----3--x-|


D |---------x---------x---------x---------x---------x---------x---------x---------x-|
A |---------x---------x---------x---------x---------x---------x---------x---------x-|
G |---2-----x-2-2-----x-2----2--x-2-2-2---x---------x---------x---------x---------x-|
D |---0-----x-0-0-----x-0----0--x-0-0-0---x-0-3-----x-3-3-----x-3/5--5--x-5----3--x-|
A |---------x---------x---------x---------x-0-3-----x-3-3-----x-3/5--5--x-5----3--x-|
D |-0-------x-0-0-----x-0----0--x-0-0-0---x-0-3-----x-3-3-----x-3/5--5--x-5----3--x-|


D |---------x---------x---------x---------x---------x---------x---------x---------x-|
A |---------x---------x---------x---------x---------x---------x---------x---------x-|
G |-----2---x-----2---x-----2---x-----2---x-----2---x-----2---x-----2---x-----2---x-|
D |---0-----x---0-----x---0-----x---0-----x---0-----x---0-----x---0-----x---0-----x-|
A |---------x---------x---------x---------x---------x---------x---------x---------x-
D |-0-------x-0-------x-0-------x-0-------x-0-------x-0-------x-0-------x-0-------x-|


D |---------x---------x---------x---------x---------x---------x---------------------|
A |---------x---------x---------x---------x---------x---------x---------------------|
G |-----2---x-----2---x-----2---x-----2---x-----2---x-----2---x-2---2/7~------------|
D |---0-----x---0-----x---0-----x---0-----x---0-----x---0-----x---------------------|
A |---------x---------x---------x---------x---------x---------x---------------------|
D |-0-------x-0-------x-0-------x-0-------x-0-------x-0-------x---------------------|


D |-------------------x-|
A |-------------------x-|
G |-2p0---------------x-|
D |-------------------x-|
A |-------------------x-|
D |-------------------x-|

Добавлено: 21.04.2012
Другие материалы по этой песне:
  • Аккорды и текст

Страница создана 21.04.2012
http://primanota.ru/fink/all-cried-out-chords.htm
Привет, Гость.
Предлагаем пройти революционный курс по гитаре.
Подарок от PrimaNota.Ru, забирай!