PrimaNota.ru - самый крупный в мире бесплатный архив песенных текстов, аккордов, табулатур и нот


Fingersmoran - Time Machine - бас-таба, видео

Регистрация Запомнить меня
Войти через:  Facebook Google Twitter Vk Yandex Mail.ru

Fingersmoran - Time Machine - бас-таба, видео

Печатать
Просмотров: 75
                                 Time Machine                                   


                                                                    Fingersmoran
Shawn



     E  E  E  E  E  E  E  E     E  E  E  E  E  E  E  E   
G||--------------------------|--------------------------|
D||--------------5-----------|--------------5-----------|
A||-----7--5--------7--5-----|-----7--5--------7--5-----|
E||--0--------7-----------7--|--0--------7-----------7--|


  E  E  E  E  E  E  E  E     E  E  E  E  E  E  E  E   
--------------------------|--------------------------|
--------------5-----------|--------------5-----------|
-----7--5--------7--5-----|-----7--5--------7--5-----|
--0--------7-----------7--|--0--------7-----------7--|


  E  E  E  E  E  E  E  E     E  E  E  E  E  E  E  E   
--------------------------|--------------------------|
--------------5-----------|--------------5-----------|
-----7--5--------7--5-----|-----7--5--------7--5-----|
--0--------7-----------7--|--0--------7-----------7--|


  E  E  E  E  E  E  E  E     E  E  E  E  E  E  E  E   
--------------------------|--------------------------|
--------------5-----------|--------------5-----------|
-----7--5--------7--5-----|-----7--5--------7--5-----|
--0--------7-----------7--|--0--------7-----------7--|


  E  E  E  E  E  E  E  E     E  E  E  E  E  E  E  E   
--------------------------|--------------------------|
--------------5-----------|--------------5-----------|
-----7--5--------7--5-----|-----7--5--------7--5-----|
--0--------7-----------7--|--0--------7-----------7--|


  E  E  E  E  E  E  E  E     E  E  E  E  E  E  E  E   
--------------------------|--------------------------|
--------------5-----------|--------------5-----------|
-----7--5--------7--5-----|-----7--5--------7--5-----|
--0--------7-----------7--|--0--------7-----------7--|


  E  E  E  E  E  E  E  E     E  E  E  E  E  E  E  E   
--------------------------|--------------------------|
--------------5-----------|--------------5-----------|
-----7--5--------7--5-----|-----7--5--------7--5-----|
--0--------7-----------7--|--0--------7-----------7--|


  E  E  E  E  E  E  E  E     E  E  E  E  E  E  E  E   
--------------------------|--------------------------|
--------------5-----------|--------------5-----------|
-----7--5--------7--5-----|-----7--5--------7--5-----|
--0--------7-----------7--|--0--------7-----------7--|


  E  E  E  E  E  E  E  E     E  E  E  E  E  E  E  E   
--------------------------|--------------------------|
--------------5-----------|--------------5-----------|
-----7--5--------7--5-----|-----7--5--------7--5-----|
--0--------7-----------7--|--0--------7-----------7--|


  E  E  E  E  E  E  E  E     E  E  E  E  E  E  Q       E  E  E  E  E  E  E  E   
--------------------------|--------------------4----|--------------------------|
--------------5-----------|--------------5--7-------|--------------5-----------|
-----7--5--------7--5-----|-----7--5--7-------------|-----7--5--------7--5-----|
--0--------7-----------7--|--0----------------------|--0--------7-----------7--|


  E  E  E  E  E  E  E  E     E  E  E  E  E  E  E  E   
--------------------------|--------------------------|
--------------5-----------|--------------5-----------|
-----7--5--------7--5-----|-----7--5--------7--5-----|
--0--------7-----------7--|--0--------7-----------7--|


  E  E  E  E  E  E  E  E     Q    Q    Q    Q       E  E  E  E  Q    Q     
--------------------------|----------------------|------------------------|
--------------5-----------|----------------------|------------------------|
-----7--5--------7--5-----|------------7----7----|--------------5----5----|
--0--------7-----------7--|--0----0--------------|-----0--5--7------------|


  E  E  E  E  Q    Q       E  E  S  S E  E  E  E  E     Q    Q    Q    Q     
------------------------|----------------------------|----------------------|
------------------------|--------5h-7-5-----5--------|----------------------|
--------------5----5----|--5--7----------7-----7--5--|------------7----7----|
-----0--5--7------------|----------------------------|--0----0--------------|


  E  E  E  E  Q    Q       E  E  E  E  E  E  E  E   
------------------------|--------------------------|
------------------------|--------------------------|
--------------5----5----|--3--------5--------7-----|
-----0--5--7------------|-----0--0-----0--0-----0--|


  E   E  E  E   E   E   E   E     Q    Q    Q    Q       E  E  E  E  Q    Q     
-------------------------------|----------------------|------------------------|
-----------------------10--12--|----------------------|------------------------|
-----10--------10--12----------|------------7----7----|--------------5----5----|
--0------0--0------------------|--0----0--------------|-----0--5--7------------|


  E  E  E  E  Q    Q       E  E  S  S E  E  E  E  E     Q    Q    Q    Q     
------------------------|----------------------------|----------------------|
------------------------|--------5h-7-5-----5--------|----------------------|
--------------5----5----|--5--7----------7-----7--5--|------------7----7----|
-----0--5--7------------|----------------------------|--0----0--------------|


  E  E  E  E  Q    Q       E  E  E  E  E  E  E  E   
------------------------|--------------------------|
------------------------|--------------------------|
--------------5----5----|--3--------5--------7-----|
-----0--5--7------------|-----0--0-----0--0-----0--|


  E   E  E  E   E   E   E   E     E  E  E  E  E  E  E  E   
-------------------------------|--------------------------|
-----------------------10--12--|--------------5-----------|
-----10--------10--12----------|-----7--5--------7--5-----|
--0------0--0------------------|--0--------7-----------7--|


  E  E  E  E  E  E  E  E     E  E  E  E  E  E  E  E   
--------------------------|--------------------------|
--------------5-----------|--------------5-----------|
-----7--5--------7--5-----|-----7--5--------7--5-----|
--0--------7-----------7--|--0--------7-----------7--|


  E  E  E  E  E  E  E  E     E  E  E  E  E  E  E  E   
--------------------------|--------------------------|
--------------5-----------|--------------5-----------|
-----7--5--------7--5-----|-----7--5--------7--5-----|
--0--------7-----------7--|--0--------7-----------7--|


  E  E  E  E  E  E  E  E     E  E  E  E  E  E  E  E   
--------------------------|--------------------------|
--------------5-----------|--------------5-----------|
-----7--5--------7--5-----|-----7--5--------7--5-----|
--0--------7-----------7--|--0--------7-----------7--|


  E  E  E  E  E  E  E  E     E  E  E  E  E  E  E  E   
--------------------------|--------------------------|
--------------5-----------|--------------5-----------|
-----7--5--------7--5-----|-----7--5--------7--5-----|
--0--------7-----------7--|--0--------7-----------7--|


  E  E  E  E  E  E  E  E     E  E  E  E  E  E  E  E   
--------------------------|--------------------------|
--------------5-----------|--------------5-----------|
-----7--5--------7--5-----|-----7--5--------7--5-----|
--0--------7-----------7--|--0--------7-----------7--|


  E  E  E  E  E  E  E  E     E  E  E  E  E  E  E  E   
--------------------------|--------------------------|
--------------5-----------|--------------5-----------|
-----7--5--------7--5-----|-----7--5--------7--5-----|
--0--------7-----------7--|--0--------7-----------7--|


  E  E  E  E  E  E  E  E     E  E  E  E  E  E  E  E   
--------------------------|--------------------------|
--------------5-----------|--------------5-----------|
-----7--5--------7--5-----|-----7--5--------7--5-----|
--0--------7-----------7--|--0--------7-----------7--|


  E  E  E  E  E  E  E  E     E  E  E  E  E  E  E  E   
--------------------------|--------------------------|
--------------5-----------|--------------5-----------|
-----7--5--------7--5-----|-----7--5--------7--5-----|
--0--------7-----------7--|--0--------7-----------7--|


  E  E  E  E  E  E  E  E     E  E  E  E  E  E  E  E   
--------------------------|--------------------------|
--------------5-----------|--------------5-----------|
-----7--5--------7--5-----|-----7--5--------7--5-----|
--0--------7-----------7--|--0--------7-----------7--|


  E  E  E  E  E  E  E  E     Q    Q    Q    Q       E  E  E  E  Q    Q     
--------------------------|----------------------|------------------------|
--------------5-----------|----------------------|------------------------|
-----7--5--------7--5-----|------------7----7----|--------------5----5----|
--0--------7-----------7--|--0----0--------------|-----0--5--7------------|


  E  E  E  E  Q    Q       E  E  S  S E  E  E  E  E     Q    Q    Q    Q     
------------------------|----------------------------|----------------------|
------------------------|--------5h-7-5-----5--------|----------------------|
--------------5----5----|--5--7----------7-----7--5--|------------7----7----|
-----0--5--7------------|----------------------------|--0----0--------------|


  E  E  E  E  Q    Q       E  E  E  E  E  E  E  E   
------------------------|--------------------------|
------------------------|--------------------------|
--------------5----5----|--3--------5--------7-----|
-----0--5--7------------|-----0--0-----0--0-----0--|


  E   E  E  E   E   E   E   E     Q    Q    Q    Q       E  E  E  E  Q    Q     
-------------------------------|----------------------|------------------------|
-----------------------10--12--|----------------------|------------------------|
-----10--------10--12----------|------------7----7----|--------------5----5----|
--0------0--0------------------|--0----0--------------|-----0--5--7------------|


  E  E  E  E  Q    Q       E  E  S  S E  E  E  E  E     Q    Q    Q    Q     
------------------------|----------------------------|----------------------|
------------------------|--------5h-7-5-----5--------|----------------------|
--------------5----5----|--5--7----------7-----7--5--|------------7----7----|
-----0--5--7------------|----------------------------|--0----0--------------|


  E  E  E  E  Q    Q       E  E  E  E  E  E  E  E   
------------------------|--------------------------|
------------------------|--------------------------|
--------------5----5----|--3--------5--------7-----|
-----0--5--7------------|-----0--0-----0--0-----0--|


  E   E  E  E   E   E   E   E     E  E  E  E  E  E  E  E   
-------------------------------|--------------------------|
-----------------------10--12--|--------------------------|
-----10--------10--12----------|--------------------------|
--0------0--0------------------|--0--0--0--0--0--0--0--0--|


  E  E  E  E  E  E  E  E     E  E  E  E  E  E  E  E   
--------------------------|--------------------------|
--------------------------|--------------------------|
--------------------------|--7--------5--------8-----|
--0--0--0--0--0--0--0--0--|-----0--0-----0--0-----0--|


  E  E  E  E  E  E  E  E     E  E  E  E  E  E  E  E   
--------------------------|--------------------------|
--------------------------|--------------------------|
-----7--------5-----7-----|--------------------------|
--0-----0--0-----0-----0--|--0--0--0--0--0--0--0--0--|


  E  E  E  E  E  E  E  E     E  E  E  E  E  E  E  E   
--------------------------|--------------------------|
--------------------------|--------------------------|
--------------------------|--7--------5--------8-----|
--0--0--0--0--0--0--0--0--|-----0--0-----0--0-----0--|


  E  E  E  E  E  E  E  E     E  E  E  E  E  E  E  E   
--------------------------|--------------------------|
--------------------------|--------------------------|
-----7--------5-----7-----|--------------------------|
--0-----0--0-----0-----0--|--0--0--0--0--0--0--0--0--|


  E  E  E  E  E  E  E  E     E  E  E  E  E  E  E  E   
--------------------------|--------------------------|
--------------------------|--------------------------|
--------------------------|--7--------5--------8-----|
--0--0--0--0--0--0--0--0--|-----0--0-----0--0-----0--|


  E  E  E  E  E  E  E  E     E  E  E  E  E  E  E  E   
--------------------------|--------------------------|
--------------------------|--------------------------|
-----7--------5-----7-----|--------------------------|
--0-----0--0-----0-----0--|--0--0--0--0--0--0--0--0--|


  E  E  E  E  E  E  E  E     E  E  E  E  E  E  E  E   
--------------------------|--------------------------|
--------------------------|--------------------------|
--------------------------|--7--------5--------8-----|
--0--0--0--0--0--0--0--0--|-----0--0-----0--0-----0--|


  E  E  E  E  E  E  E  E     E  E  E  E  E  E  E  E   
--------------------------|--------------------------|
--------------------------|--------------------------|
-----7--------5-----7-----|--------------------------|
--0-----0--0-----0-----0--|--0--0--0--0--0--0--0--0--|


  E  E  E  E  E  E  E  E     E  E  E  E  E  E  E  E   
--------------------------|--------------------------|
--------------------------|--------------------------|
--------------------------|--7--------5--------8-----|
--0--0--0--0--0--0--0--0--|-----0--0-----0--0-----0--|


  E  E  E  E  E  E  E  E     E  E  E  E  E  E  E  E   
--------------------------|--------------------------|
--------------------------|--------------------------|
-----7--------5-----7-----|--------------------------|
--0-----0--0-----0-----0--|--0--0--0--0--0--0--0--0--|


  E  E  E  E  E  E  E  E     E  E  E  E  E  E  E  E   
--------------------------|--------------------------|
--------------------------|--------------------------|
--------------------------|--7--------5--------8-----|
--0--0--0--0--0--0--0--0--|-----0--0-----0--0-----0--|


  E  E  E  E  E  E  E  E     E  E  E  E  E  E  E  E   
--------------------------|--------------------------|
--------------------------|--------------------------|
-----7--------5-----7-----|--------------------------|
--0-----0--0-----0-----0--|--0--0--0--0--0--0--0--0--|


  E  E  E  E  E  E  E  E     E  E  E  E  E  E  E  E   
--------------------------|--------------------------|
--------------------------|--------------------------|
--------------------------|--7--------5--------8-----|
--0--0--0--0--0--0--0--0--|-----0--0-----0--0-----0--|


  E  E  E  E  E  E  E  E     E  E  E  E  E  E  E  E   
--------------------------|--------------------------|
--------------------------|--------------------------|
-----7--------5-----7-----|--------------------------|
--0-----0--0-----0-----0--|--0--0--0--0--0--0--0--0--|


  E  E  E  E  E  E  E  E     E  E  E  E  E  E  E  E   
--------------------------|--------------------------|
--------------------------|--------------------------|
--------------------------|--7--------5--------8-----|
--0--0--0--0--0--0--0--0--|-----0--0-----0--0-----0--|


  E  E  E  E  E  E  E  E     E  E  E  E  E  E  E  E   
--------------------------|--------------------------|
--------------------------|--------------------------|
-----7--------5-----7-----|--------------------------|
--0-----0--0-----0-----0--|--0--0--0--0--0--0--0--0--|


  E  E  E  E  E  E  E  E     E  E  E  E  E  E  E  E   
--------------------------|--------------------------|
--------------------------|--------------------------|
--------------------------|--7--------5--------8-----|
--0--0--0--0--0--0--0--0--|-----0--0-----0--0-----0--|


  E  E  E  E  E  E  E  E     E  E  E  E  E  E  E  E   
--------------------------|--------------------------|
--------------------------|--------------5-----------|
-----7--------5-----7-----|-----7--5--------7--5-----|
--0-----0--0-----0-----0--|--0--------7-----------7--|


  E  E  E  E  E  E  E  E     E  E  E  E  E  E  E  E   
--------------------------|--------------------------|
--------------5-----------|--------------5-----------|
-----7--5--------7--5-----|-----7--5--------7--5-----|
--0--------7-----------7--|--0--------7-----------7--|


  E  E  E  E  E  E  E  E     E  E  E  E  E  E  E  E   
--------------------------|--------------------------|
--------------5-----------|--------------5-----------|
-----7--5--------7--5-----|-----7--5--------7--5-----|
--0--------7-----------7--|--0--------7-----------7--|


  E  E  E  E  E  E  E  E     E  E  E  E  E  E  E  E   
--------------------------|--------------------------|
--------------5-----------|--------------5-----------|
-----7--5--------7--5-----|-----7--5--------7--5-----|
--0--------7-----------7--|--0--------7-----------7--|


  E  E  E  E  E  E  E  E     E  E  E  E  E  E  E  E   
--------------------------|--------------------------|
--------------5-----------|--------------5-----------|
-----7--5--------7--5-----|-----7--5--------7--5-----|
--0--------7-----------7--|--0--------7-----------7--|


  E  E  E  E  E  E  E  E     E  E  E  E  E  E  E  E   
--------------------------|--------------------------|
--------------5-----------|--------------5-----------|
-----7--5--------7--5-----|-----7--5--------7--5-----|
--0--------7-----------7--|--0--------7-----------7--|


  E  E  E  E  E  E  E  E     E  E  E  E  E  E  E  E   
--------------------------|--------------------------|
--------------5-----------|--------------5-----------|
-----7--5--------7--5-----|-----7--5--------7--5-----|
--0--------7-----------7--|--0--------7-----------7--|


  E  E  E  E  E  E  E  E     E  E  E  E  E  E  E  E   
--------------------------|--------------------------|
--------------5-----------|--------------5-----------|
-----7--5--------7--5-----|-----7--5--------7--5-----|
--0--------7-----------7--|--0--------7-----------7--|


  E  E  E  E  E  E  E  E     W                                      
--------------------------|-------------------|-------------------||
--------------5-----------|--2----------------|-------------------||
-----7--5--------7--5-----|--7----------------|-------------------||
--0--------7-----------7--|--0----------------|-------------------||




Duration Legend
---------------
W - whole
H - half
Q - quarter
E - 8th
S - 16th
T - 32nd
X - 64th
. - note dotted
|-n-|  - n-tuplets


Tablature Legend
----------------
L - tied note
x - dead note
g - grace note
(n) - ghost note
> - accentuded note
NH - natural harmonic
AH - artificial harmonic
TH - tapped harmonic
SH - semi harmonic
PH - pitch harmonic
h - hammer on
p - pull off
b - bend
br - bendRelease
pb - preBend
pbr - preBendRelease
brb - bendReleaseBend
\n/ - tremolo bar dip
\n - tremolo bar dive
-/n - tremolo bar Release up
/n\ - tremolo bar inverted dip
/n - tremolo bar return
-\n - tremolo bar Release down
S - shift slide
s - legato slide
/ -  slide into from below or out of upwards
\ -  slide into from above or out of downwards
~ - vibrato
W - wide vibrato
tr - trill
TP - tremolo picking
T - tapping
S - slap
P - pop
< - fade in
^ - brush up
v - brush down
Добавлено: 30.03.2012
Другие материалы по этой песне:

Страница создана 30.03.2012
http://primanota.ru/fingersmoran/time-machine-chords.htm
Привет, Гость.
Предлагаем пройти революционный курс по гитаре.
Подарок от PrimaNota.Ru, забирай!