PrimaNota.ru - самый крупный в мире бесплатный архив песенных текстов, аккордов, табулатур и нот


Fingersmoran - The Red Bull - бас-таба, видео

Регистрация Запомнить меня
Войти через:  Facebook Google Twitter Vk Yandex Mail.ru

Fingersmoran - The Red Bull - бас-таба, видео

Печатать
Просмотров: 137
Уроки эстрадного вокала в Санкт-Петербурге
                             Fingersmoran  -  The Red Bull
Shawn


The Tapping Part:

      |---3---|   |---3---|   |---3---|   |---3---|   
      E   E   E   E   E   E   E   E   E   E   E   E   
G||--------------12----------11----------12----------|
D||----------14----------14----------14----------14--|
A||------14----------14----------14----------14------|
E||--12----------------------------------------------|


   |---3---|   |---3---|   |---3---|   |---3---|   
   E   E   E   E   E   E   E   E   E   E   E   E   
--14----------16----------18----------16----------|
----------14----------14----------14----------14--|
------14----------14----------14----------14------|
--------------------------------------------------|


   |---3---|   |---3---|   |---3---|   |---3---|                        
   E   E   E   E   E   E   E   E   E   E   E   E      W                 
--14----------16----------14----------12----------|--11----------------|
----------14----------14----------14----------14--|--------------------|
------14----------14----------14----------14------|--------------------|
--------------------------------------------------|--------------------|


   |---3---|   |---3---|   |---3---|   |---3---|   
   E   E   E   E   E   E   E   E   E   E   E   E   
--------------12----------11----------12----------|
----------12----------12----------12----------12--|
------12----------12----------12----------12------|
--10----------------------------------------------|


   |---3---|   |---3---|   |---3---|   |---3---|   
   E   E   E   E   E   E   E   E   E   E   E   E   
--14----------16----------14----------12----------|
----------12----------12----------12----------12--|
------12----------12----------12----------12------|
--------------------------------------------------|


   |---3---|   |---3---|   |---3---|   |---3---|                        
   E   E   E   E   E   E   E   E   E   E   E   E      W                 
--14----------12----------11----------12----------|--11----------------|
----------12----------12----------12----------12--|--------------------|
------12----------12----------12----------12------|--------------------|
--------------------------------------------------|--------------------|


  |---3---|   |---3---|  |---3---|   |---3---|   
  E   E   E   E   E   E  E   E   E   E   E   E   
-------------10----------9----------10----------|
---------10----------10---------10----------10--|
-----10----------10---------10----------10------|
--8---------------------------------------------|


   |---3---|   |---3---|   |---3---|   |---3---|   
   E   E   E   E   E   E   E   E   E   E   E   E   
--12----------14----------12----------10----------|
----------10----------10----------10----------10--|
------10----------10----------10----------10------|
--------------------------------------------------|


  |---3---|   |---3---|   |---3---|   |---3---|                       
  E   E   E   E   E   E   E   E   E   E   E   E     W                 
--9----------10----------12----------10----------|--9----------------|
---------10----------10----------10----------10--|-------------------|
-----10----------10----------10----------10------|-------------------|
-------------------------------------------------|-------------------|


  |--3--|  |--3--|  |--3--|  |--3--|     |--3--|  |--3--|  |--3--|  |--3--|   
  E  E  E  E  E  E  E  E  E  E  E  E     E  E  E  E  E  E  E  E  E  E  E  E   
-----------9--------8--------9--------|-----------9--------8--------9--------|
--------9--------9--------9--------9--|--------9--------9--------9--------9--|
-----9--------9--------9--------9-----|-----9--------9--------9--------9-----|
--7-----------------------------------|--7-----------------------------------|


  |--3--|  |--3--|  |--3--|  |--3--|      |--3--|  |--3--|  |--3--|  |--3--|   
  E  E  E  E  E  E  E  E  E  E  E  E      E  E  E  E  E  E  E  E  E  E  E  E   
-----------9--------8--------9--------|--11--------9--------8--------9--------|
--------9--------9--------9--------9--|---------9--------9--------9--------9--|
-----9--------9--------9--------9-----|------9--------9--------9--------9-----|
--7-----------------------------------|---------------------------------------|


  |--3--|  |--3--|  |--3--|  |--3--|     |--3--|  |--3--|  |--3--|  |--3--|   
  E  E  E  E  E  E  E  E  E  E  E  E     E  E  E  E  E  E  E  E  E  E  E  E   
-----------9--------8--------9--------|-----------9--------8--------9--------|
--------9--------9--------9--------9--|--------9--------9--------9--------9--|
-----9--------9--------9--------9-----|-----9--------9--------9--------9-----|
--7-----------------------------------|--7-----------------------------------|


  |--3--|  |--3--|  |--3--|  |--3--|   
  E  E  E  E  E  E  E  E  E  E  E  E   
-----------9--------8--------9--------|
--------9--------9--------9--------9--|
-----9--------9--------9--------9-----|
--7-----------------------------------|


   |--3--|   |--3--|   |--3--|   |--3--|   
   E  E  E   E  E  E   E  E  E   E  E  E   
--11--------12--------14--------16--------|
---------9---------9---------9---------9--|
------9---------9---------9---------9-----|
------------------------------------------|


   |--3--|   |--3--|   |--3--|   |--3--|                        
   E  E  E   E  E  E   E  E  E   E  E  E      W                 
--17--------16--------14--------12--------|--11----------------|
---------9---------9---------9---------9--|--------------------|
------9---------9---------9---------9-----|--------------------|
------------------------------------------|--------------------|


   |---3---|   |---3---|   |---3---|   |---3---|   
   E   E   E   E   E   E   E   E   E   E   E   E   
--------------12----------11----------12----------|
----------14----------14----------14----------14--|
------14----------14----------14----------14------|
--12----------------------------------------------|


   |---3---|   |---3---|   |---3---|   |---3---|   
   E   E   E   E   E   E   E   E   E   E   E   E   
--------------12----------11----------12----------|
----------14----------14----------14----------14--|
------14----------14----------14----------14------|
--12----------------------------------------------|


   |---3---|   |---3---|   |---3---|   |---3---|   
   E   E   E   E   E   E   E   E   E   E   E   E   
--------------12----------11----------12----------|
----------14----------14----------14----------14--|
------14----------14----------14----------14------|
--12----------------------------------------------|


   |---3---|   |---3---|   |---3---|   |---3---|   
   E   E   E   E   E   E   E   E   E   E   E   E   
--14----------12----------11----------12----------|
----------14----------14----------14----------14--|
------14----------14----------14----------14------|
--------------------------------------------------|


   |---3---|   |---3---|   |---3---|   |---3---|   
   E   E   E   E   E   E   E   E   E   E   E   E   
--------------12----------11----------12----------|
----------14----------14----------14----------14--|
------14----------14----------14----------14------|
--12----------------------------------------------|


   |---3---|   |---3---|   |---3---|   |---3---|   
   E   E   E   E   E   E   E   E   E   E   E   E   
--------------12----------11----------12----------|
----------14----------14----------14----------14--|
------14----------14----------14----------14------|
--12----------------------------------------------|


   |---3---|   |---3---|   |---3---|   |---3---|   
   E   E   E   E   E   E   E   E   E   E   E   E   
--------------12----------11----------12----------|
----------14----------14----------14----------14--|
------14----------14----------14----------14------|
--12----------------------------------------------|


   |---3---|   |---3---|   |---3---|   |---3---|   
   E   E   E   E   E   E   E   E   E   E   E   E   
--16----------14----------12----------11----------|
----------14----------14----------14----------14--|
------14----------14----------14----------14------|
--------------------------------------------------|


   |---3---|   |---3---|   |---3---|   |---3---|   
   E   E   E   E   E   E   E   E   E   E   E   E   
--------------12----------------------11----------|
----------14------14--------------12------12------|
------14--------------14------12--------------12--|
--12----------------------10----------------------|


  |---3---|  |---3---|  |--3--|  |--3--|   
  E   E   E  E   E   E  E  E  E  E  E  E   
-------------9-------------------8--------|
---------10-----10------------9-----9-----|
-----10-------------10-----9-----------9--|
--8---------------------7-----------------|


   |---3---|   |---3---|   |---3---|   |---3---|   
   E   E   E   E   E   E   E   E   E   E   E   E   
--------------12----------------------11----------|
----------14------14--------------12------12------|
------14--------------14------12--------------12--|
--12----------------------10----------------------|


  |---3---|  |---3---|  |--3--|  |--3--|   
  E   E   E  E   E   E  E  E  E  E  E  E   
-------------9-------------------8--------|
---------10-----10------------9-----9-----|
-----10-------------10-----9-----------9--|
--8---------------------7-----------------|


   |---3---|   |---3---|   |---3---|   |---3---|   
   E   E   E   E   E   E   E   E   E   E   E   E   
--------------12----------------------11----------|
----------14------14--------------12------12------|
------14--------------14------12--------------12--|
--12----------------------10----------------------|


  |---3---|  |---3---|  |--3--|  |--3--|   
  E   E   E  E   E   E  E  E  E  E  E  E   
-------------9-------------------8--------|
---------10-----10------------9-----9-----|
-----10-------------10-----9-----------9--|
--8---------------------7-----------------|


   |---3---|   |---3---|   |---3---|   |---3---|   
   E   E   E   E   E   E   E   E   E   E   E   E   
--------------12----------------------11----------|
----------14------14--------------12------12------|
------14--------------14------12--------------12--|
--12----------------------10----------------------|


  |---3---|  |---3---|  |--3--|  |--3--|   
  E   E   E  E   E   E  E  E  E  E  E  E   
-------------9-------------------8--------|
---------10-----10------------9-----9-----|
-----10-------------10-----9-----------9--|
--8---------------------7-----------------|


   |---3---|   |---3---|   |---3---|   |---3---|   
   E   E   E   E   E   E   E   E   E   E   E   E   
--------------12----------11----------12----------|
----------14----------14----------14----------14--|
------14----------14----------14----------14------|
--12----------------------------------------------|


   |---3---|   |---3---|   |---3---|   |---3---|   
   E   E   E   E   E   E   E   E   E   E   E   E   
--14----------12----------11----------12----------|
----------14----------14----------14----------14--|
------14----------14----------14----------14------|
--------------------------------------------------|


   |---3---|   |---3---|   |---3---|   |---3---|   
   E   E   E   E   E   E   E   E   E   E   E   E   
--------------12----------11----------12----------|
----------12----------12----------12----------12--|
------12----------12----------12----------12------|
--10----------------------------------------------|


   |---3---|   |---3---|   |---3---|   |---3---|   
   E   E   E   E   E   E   E   E   E   E   E   E   
--16----------14----------12----------11----------|
----------12----------12----------12----------12--|
------12----------12----------12----------12------|
--------------------------------------------------|


  |---3---|   |---3---|  |---3---|   |---3---|   
  E   E   E   E   E   E  E   E   E   E   E   E   
-------------10----------9----------10----------|
---------10----------10---------10----------10--|
-----10----------10---------10----------10------|
--8---------------------------------------------|


   |---3---|   |---3---|  |---3---|   |---3---|   
   E   E   E   E   E   E  E   E   E   E   E   E   
--12----------10----------9----------10----------|
----------10----------10---------10----------10--|
------10----------10---------10----------10------|
-------------------------------------------------|


  |--3--|  |--3--|  |--3--|  |--3--|     |--3--|  |--3--|  |--3--|  |--3--|   
  E  E  E  E  E  E  E  E  E  E  E  E     E  E  E  E  E  E  E  E  E  E  E  E   
-----------9--------8--------9--------|-----------9--------8--------9--------|
--------9--------9--------9--------9--|--------9--------9--------9--------9--|
-----9--------9--------9--------9-----|-----9--------9--------9--------9-----|
--7-----------------------------------|--7-----------------------------------|


   |---3---|   |---3---|   |---3---|   |---3---|   
   E   E   E   E   E   E   E   E   E   E   E   E   
--------------12----------11----------12----------|
----------14----------14----------14----------14--|
------14----------14----------14----------14------|
--12----------------------------------------------|


   |---3---|   |---3---|   |---3---|   |---3---|   
   E   E   E   E   E   E   E   E   E   E   E   E   
--14----------12----------11----------12----------|
----------14----------14----------14----------14--|
------14----------14----------14----------14------|
--------------------------------------------------|


   |---3---|   |---3---|   |---3---|   |---3---|   
   E   E   E   E   E   E   E   E   E   E   E   E   
--------------12----------11----------12----------|
----------12----------12----------12----------12--|
------12----------12----------12----------12------|
--10----------------------------------------------|


   |---3---|   |---3---|   |---3---|   |---3---|   
   E   E   E   E   E   E   E   E   E   E   E   E   
--16----------14----------12----------11----------|
----------12----------12----------12----------12--|
------12----------12----------12----------12------|
--------------------------------------------------|


  |---3---|   |---3---|  |---3---|   |---3---|   
  E   E   E   E   E   E  E   E   E   E   E   E   
-------------10----------9----------10----------|
---------10----------10---------10----------10--|
-----10----------10---------10----------10------|
--8---------------------------------------------|


   |---3---|   |---3---|  |---3---|   |---3---|   
   E   E   E   E   E   E  E   E   E   E   E   E   
--12----------10----------9----------10----------|
----------10----------10---------10----------10--|
------10----------10---------10----------10------|
-------------------------------------------------|


  |--3--|  |--3--|  |--3--|  |--3--|     |--3--|  |--3--|  |--3--|  |--3--|   
  E  E  E  E  E  E  E  E  E  E  E  E     E  E  E  E  E  E  E  E  E  E  E  E   
-----------9--------8--------9--------|-----------9--------8--------9--------|
--------9--------9--------9--------9--|--------9--------9--------9--------9--|
-----9--------9--------9--------9-----|-----9--------9--------9--------9-----|
--7-----------------------------------|--7-----------------------------------|


   |---3---|   |---3---|   |---3---|   |---3---|   
   E   E   E   E   E   E   E   E   E   E   E   E   
--------------12----------------------11----------|
----------14------14--------------12------12------|
------14--------------14------12--------------12--|
--12----------------------10----------------------|


  |---3---|  |---3---|  |--3--|  |--3--|   
  E   E   E  E   E   E  E  E  E  E  E  E   
-------------9-------------------8--------|
---------10-----10------------9-----9-----|
-----10-------------10-----9-----------9--|
--8---------------------7-----------------|


   |---3---|   |---3---|   |---3---|   |---3---|   
   E   E   E   E   E   E   E   E   E   E   E   E   
--------------12----------------------11----------|
----------14------14--------------12------12------|
------14--------------14------12--------------12--|
--12----------------------10----------------------|


  |---3---|  |---3---|  |--3--|  |--3--|   
  E   E   E  E   E   E  E  E  E  E  E  E   
-------------9-------------------8--------|
---------10-----10------------9-----9-----|
-----10-------------10-----9-----------9--|
--8---------------------7-----------------|


   |---3---|   |---3---|   |---3---|   |---3---|   
   E   E   E   E   E   E   E   E   E   E   E   E   
--------------12----------------------11----------|
----------14------14--------------12------12------|
------14--------------14------12--------------12--|
--12----------------------10----------------------|


  |---3---|  |---3---|  |--3--|  |--3--|   
  E   E   E  E   E   E  E  E  E  E  E  E   
-------------9-------------------8--------|
---------10-----10------------9-----9-----|
-----10-------------10-----9-----------9--|
--8---------------------7-----------------|


   |---3---|   |---3---|   |---3---|   |---3---|   
   E   E   E   E   E   E   E   E   E   E   E   E   
--------------12----------------------11----------|
----------14------14--------------12------12------|
------14--------------14------12--------------12--|
--12----------------------10----------------------|


  |---3---|  |---3---|  |--3--|  |--3--|                        
  E   E   E  E   E   E  E  E  E  E  E  E     W                  
-------------9-------------------8--------|-------------------||
---------10-----10------------9-----9-----|-------------------||
-----10-------------10-----9-----------9--|-------------------||
--8---------------------7-----------------|--0----------------||




Duration Legend
---------------
W - whole
H - half
Q - quarter
E - 8th
S - 16th
T - 32nd
X - 64th
. - note dotted
|-n-|  - n-tuplets


Tablature Legend
----------------
L - tied note
x - dead note
g - grace note
(n) - ghost note
> - accentuded note
NH - natural harmonic
AH - artificial harmonic
TH - tapped harmonic
SH - semi harmonic
PH - pitch harmonic
h - hammer on
p - pull off
b - bend
br - bendRelease
pb - preBend
pbr - preBendRelease
brb - bendReleaseBend
\n/ - tremolo bar dip
\n - tremolo bar dive
-/n - tremolo bar Release up
/n\ - tremolo bar inverted dip
/n - tremolo bar return
-\n - tremolo bar Release down
S - shift slide
s - legato slide
/ -  slide into from below or out of upwards
\ -  slide into from above or out of downwards
~ - vibrato
W - wide vibrato
tr - trill
TP - tremolo picking
T - tapping
S - slap
P - pop
< - fade in
^ - brush up
v - brush down
Добавлено: 16.03.2012
Другие материалы по этой песне:

Страница создана 16.03.2012
http://primanota.ru/fingersmoran/the-red-bull-chords.htm
Привет, Гость.
Предлагаем пройти революционный курс по гитаре.
Подарок от PrimaNota.Ru, забирай!