PrimaNota.ru - самый крупный в мире бесплатный архив песенных текстов, аккордов, табулатур и нот


Fingersmoran - Taco Tuesday - бас-таба, видео

Регистрация Запомнить меня
Войти через:  Facebook Google Twitter Vk Yandex Mail.ru

Fingersmoran - Taco Tuesday - бас-таба, видео

Печатать
Просмотров: 132
Flamenco:

G|-2--4--5----2-4-5-7-9-7-5-2---2--4--2-|
D|-3--2--3----3-2-3-5-7-5-3-4---3--2--0-|
A|--------------------------------------|
E|--------------------------------------|

G|-2--4--5----2--4--5--7--5-4-2--4--5----2--4--2-|
D|-3--2--3----3--2--3--5--3-2-3--2--3----3--2--0-|
A|-----------------------------------------------|
E|-----------------------------------------------|

G|-5h7--7-5-5h7--7-7-8-5-|
D|-0----0-0-0----0-0-0-0-|
A|-----------------------|x4
E|-----------------------|

G|-2--2--4-444-5--5--7-777-|
D|-3--3--2-222-3--3--5-555-|
A|-------------------------|
E|-------------------------|

G|-5h7--7--5h7--7-7-8-5-|
D|-0----0--0----0-0-0-0-|
A|----------------------|x2
E|----------------------|

G|-2--2--4-444-5--5--7-777-|
D|-3--3--2-222-3--3--5-555-|
A|-------------------------|
E|-------------------------|

G|-17h19--19---17h19-19-20-17-17h19--19---17h19-15h17-14-|
D|-0------0----0-----0--0--0--0------0----0-----0-----0--|
A|-------------------------------------------------------|
E|-------------------------------------------------------|

G|-2--2--4-444-5--5--7-777-|
D|-3--3--2-222-3--3--5-555-|
A|-------------------------|
E|-------------------------|

Slap/Pop Section:

G|-----7-7----7-7----|
D|-------------------|
A|--3/5----3/5----5-5|x2   (The 7's are Popped)
E|-------------------|

Back To Flamenco:

G|-2--2--4-444-5--5--7-777-|
D|-3--3--2-222-3--3--5-555-|
A|-------------------------|
E|-------------------------|

G|-7--7--7---7--7-7--7--7--7--8-8-8-8-5-5-5-5-|
D|-7--7--7---7--7-7--7--7--7--8-8-8-8-5-5-5-5-|
A|-5--5--5---5--5-5--5--5--5--6-6-6-6-3-3-3-3-|
E|--------------------------------------------|

G|-7--7--7---7--7-7--7--7--7--10-10-10-10-5-5-5-5-|
D|-7--7--7---7--7-7--7--7--7--10-10-10-10-5-5-5-5-|
A|-5--5--5---5--5-5--5--5--5--8--8--8--8--6-6-6-6-|
E|------------------------------------------------|

G|-7--7--7---7--7-7--7--7--7--8-8-8-8-5-5-5-5-|
D|-7--7--7---7--7-7--7--7--7--8-8-8-8-5-5-5-5-|
A|-5--5--5---5--5-5--5--5--5--6-6-6-6-3-3-3-3-|
E|--------------------------------------------|

G|-7--7--7--7-7--10h12-10h12/8h10-8h10/7-------|
D|-7--7--7--7-7--0-----------0---------0-------|
A|-5--5--5--5-5--------------------------------|
E|---------------------------------------------|

G|-2--2--4-444-5--5--7-777-|
D|-3--3--2-222-3--3--5-555-|
A|-------------------------|
E|-------------------------|

G|-5h7--7--5h7--7-7-8-5-|
D|-0----0--0----0-0-0-0-|
A|----------------------|x2
E|----------------------|

G|-2--2--4-444-5--5--7-777-|
D|-3--3--2-222-3--3--5-555-|
A|-------------------------|
E|-------------------------|

G|-17h19--19---17h19-19-20-17-17h19--19---17h19-15h17-14-|
D|-0------0----0-----0--0--0--0------0----0-----0-----0--|
A|-------------------------------------------------------|
E|-------------------------------------------------------|

G|-2--2--4-444-5--5--7-777-|
D|-3--3--2-222-3--3--5-555-|
A|-------------------------|
E|-------------------------|

Slap/Pop Again:

G|--------7-7------7-7----|
D|------------------------|
A|---3/5------3/5-----5-5-|x2 (7s are Popped)
E|------------------------|

Back To Flamenco Again:

G|-7--7--7---7--7-7--7--7--7--8-8-8-8-5-5-5-5-|
D|-7--7--7---7--7-7--7--7--7--8-8-8-8-5-5-5-5-|
A|-5--5--5---5--5-5--5--5--5--6-6-6-6-3-3-3-3-|
E|--------------------------------------------|

G|-7--7--7---7--7-7--7--7--7--10-10-10-10-5-5-5-5-|
D|-7--7--7---7--7-7--7--7--7--10-10-10-10-5-5-5-5-|
A|-5--5--5---5--5-5--5--5--5--8--8--8--8--6-6-6-6-|
E|------------------------------------------------|

G|-7--7--7---7--7-7--7--7--7--8-8-8-8-5-5-5-5-|
D|-7--7--7---7--7-7--7--7--7--8-8-8-8-5-5-5-5-|
A|-5--5--5---5--5-5--5--5--5--6-6-6-6-3-3-3-3-|
E|--------------------------------------------|

G|-7--7--7---7--7-7--7--7--7--10-10-10-10-5-5-5-5-|
D|-7--7--7---7--7-7--7--7--7--10-10-10-10-5-5-5-5-|
A|-5--5--5---5--5-5--5--5--5--8--8--8--8--6-6-6-6-|
E|------------------------------------------------|

Breakdown Section:
(When Playing This Section I Just Go At The Strings Like I Want Them Dead, Just 
Down)

G|-7--7--7---7-7-7-----7--7--7--8-8-8-8-5-5-5-5-|
D|-7--7--7---7-7-7-----7--7--7--8-8-8-8-5-5-5-5-|
A|-5--5--5---5-5-5-----5--5--5--6-6-6-6-3-3-3-3-|
E|----------------------------------------------|

G|-7--7--7---7-7-7-----7--7--7--10-10-10-10-5-5-5-5-|
D|-7--7--7---7-7-7-----7--7--7--10-10-10-10-5-5-5-5-|
A|-5--5--5---5-5-5-----5--5--5--8--8--8--8--6-6-6-6-|
E|--------------------------------------------------|

G|-7--7--7---7-7-7-----7--7--7--8-8-8-8-5-5-5-5-|
D|-7--7--7---7-7-7-----7--7--7--8-8-8-8-5-5-5-5-|
A|-5--5--5---5-5-5-----5--5--5--6-6-6-6-3-3-3-3-|
E|----------------------------------------------|

G|-7--7--7--7-7--10h12-10h12/8h10-8h10/7-------|
D|-7--7--7--7-7--0-----------0---------0-------|
A|-5--5--5--5-5--------------------------------|
E|---------------------------------------------|

G|-2--4--5----2-4-5-7-9-7-5-4----2-----4--------2-|
D|-3--2--3----3-2-3-5-7-5-3-2----3-----2--------0-|
A|------------------------------------------------|
E|------------------------------------------------|

Outro Section:
(Play Fast)

G|-22323-33535-55757-77878-8810810-1010121012-1212141214-15~~~-14h15-17-15-|
D|-00000-00000-00000-00000-000-00--0-0-0-0-0--0-0-0-0-0--0-----0-----0--0--|
A|-------------------------------------------------------------------------|
E|-------------------------------------------------------------------------|

G|-17-19--17h19-19-19-17-15h17-15-14-14-15-14-15-14h15p14h15p14h15p14|
D|-0--0---------------------------------------------0----------------|
A|-------------------------------------------------------------------|
E|-------------------------------------------------------------------|
      ^19 Strummed a number of times                ^15 Also Strummed A number of times

for the 19 and 15, listen out for them because im not sure exactly how many times they 
played.

the song is fairly complicated towards the end, and this is by no means 100% correct, 
it does sound right if you get the hang of it.
Добавлено: 29.06.2012
Другие материалы по этой песне:

Страница создана 23.05.2012
http://primanota.ru/fingersmoran/taco-tuesday-chords.htm
Привет, Гость.
Предлагаем пройти революционный курс по гитаре.
Подарок от PrimaNota.Ru, забирай!