PrimaNota.ru - самый крупный в мире бесплатный архив песенных текстов, аккордов, табулатур и нот


Fingersmoran - Six Strings Of Fury - бас-таба, видео

Регистрация Запомнить меня
Войти через:  Facebook Google Twitter Vk Yandex Mail.ru

Fingersmoran - Six Strings Of Fury - бас-таба, видео

Печатать
Просмотров: 112
Six Strings of Fury
by Fingersmoran

Tabbed By : Mkbass74

As I watched this on youtube for the thousandth time i realised how many people wanted
tab for it so I thought i'd try so here we are. The whole song is slapped unless stated
If anyone thinks this is wrong then simply ignore this tab and give a shot yourself as 
quite fun.

*This is the youtube video version*

Tuning: (six string bass low to high) B, E, A, D, G, C

Intro:
C|----------------------|
G|----------------------|
D|12-11--11-10----------|
A|12-11--11-10----------|
E|10-9---9--8-----------|
B|10-9---9--8---0--12\--|

Verse:
C|-------------------11--9\-----------------------------|
G|------------------------------------------------------|
D|------------------------------------------------------|
A|---------14-------------------------14---------5---7--|
E|------------------------------------------------------|
B|0---0h12----12--0----------0---0h12----12\---3---5----|


C|-------------------11--9h11h9----------------------------------|
G|-----------------------------11\-------------------------------|
D|--------------------------------------------------------5---7--|
A|---------14---------------------------------14-----------------|
E|-----------------------------------------------------33---5----|
B|0---0h12----12--0------------------0---0h12----12\-------------|

Chorus:
C|-----------------------------------------------------------|
G|-----------------------------------------------------------|
D|--------------------0----------------------------0----0h2--|
A|------0h2-----0h2-x---xx-0h2-------0h2-----0h2-x---xx------|
E|----------0h2--------------------------0h2-----------------|
B|0--0x------------------------0--0x-------------------------|

C|-----------------------------------------------------|
G|-----------------------------------------------------|
D|--------------------0-----------------------5--6-----|
A|------0h2-----0h2-x---xx-0h2--------0h2-----5--6-----| X2
E|----------0h2---------------------------0h2-3--4-----|
B|0--0x-------------------------0--0x------------------|

C|----------------|
G|----------------|
D|5--6-----6--8---|
A|5--6-----6--8---|
E|3--4-----5--6---|
B|----------------|

Extreme Fill:(not too sure about this)
C|--------------------------------------{11}-|
G|-------------------------------------------|
D|------------------------0h5h7-0h7h9~-------| (optional - plucked)
A|------------------0h5h7--------------------|
E|------------0h5h7--------------------------|
B|0h3h5-0h5h7--------------------------{0}---|
    ^3    ^3    ^3    ^3    ^3    ^3

{Bracketed notes played on OUTRO ONLY and as a pop/let ring}


Tapped Riff:
C|--11-11-11-11-11-11-11-11-11-11-11-11-11-11-11-11-11-11-11-11-11-11-11-11|
G|-------------------------------------------------------------------------|
D|-------------------------------------------------------------------------|
A|-------------------------------------------------------------------------|
E|-------------------------------------------------------------------------|
B|0------------------------------------------------------------------------|


Bridge:
C|------------------------------------|
G|------------------------------------|
D|---------------12-------------------|
A|---14--12h14-x-12-x14--12h14p12-----|
E|--------------------------------14--|
B|12----------------------------------|

C|------------------------------------|
G|------------------------------------|
D|--------------12--x--15--14---------|
A|---14-12h14-x-12--x--15--14---------|X2
E|------------------------------------|
B|12----------------------------------|

Gets complicated...
C|--------------------------------------11--------------------|
G|--------------------------12----14--------------------------|
D|--------------12----14--------------------------------------|
A|12-----14---------------------------------------------------|
E|--15-----15-----15----15----15----15------------------------|
B|----15-----15-----15----15----15----15-----9--8--7-6--0-12\-|
    ^3     ^3     ^3    ^3    ^3    ^3

Order:

Intro
Verse
Chorus
Verse
Chorus
Extreme Fill
Tapped Riff
Bridge
Gets Compicated...
Verse
Chorus
{Extreme Fill}


P.S. I'm sorry but its late and Im not good enough to tab the crazy improv solo at the end


| ^3  triplets
| X2 repeat section (verse, chorus etc. from the beginning)
| /  slide up
| \  slide down
| h  hammer-on
| p  pull-off
| ~  vibrato
| +  harmonic
| x  Mute note
============================================================================
Добавлено: 12.07.2012
Другие материалы по этой песне:
  • Аккорды и текст

Страница создана 12.07.2012
http://primanota.ru/fingersmoran/six-strings-of-fury-chords.htm
Привет, Гость.
Предлагаем пройти революционный курс по гитаре.
Подарок от PrimaNota.Ru, забирай!