PrimaNota.ru - самый крупный в мире бесплатный архив песенных текстов, аккордов, табулатур и нот


Fingersmoran - Mana Tree - бас-таба, видео

Регистрация Запомнить меня
Войти через:  Facebook Google Twitter Vk Yandex Mail.ru

Fingersmoran - Mana Tree - бас-таба, видео

Печатать
Просмотров: 100
-----------------------------------------------------------------------------
			     Mana Tree - Fingersmoran
-----------------------------------------------------------------------------

Tabbed By : Drew Howard
e-mail: HowardB5@shawnee.edu

What's up everyone? This is my 2nd tab. You can check any Fingersmoran song on
Only, this isn't the version seen on youtube. This is the slightly different studio 
of
song. You can purchace any Fingersmoran song by going to www.fingersmoran.com, clicking 
music link and following any link on the music page. Each song is $0.99 apiece. I highly
recommend anyone who likes this style of music to do so. Anyway, here it is.

Tuning: Drop D (DADG)

Intro (0:03)
G|-4~-11~-11h12p11-14-12-11-12-11h12p11h12p11h12----9-----11p9---------------|
D|-0~--0~----------------------------------------12---12~-----12\------------|
A|---------------------------------------------------------------------------|
D|---------------------------------------------------------------------------|

Verse 1 (0:17)
G|-----------------|-------------------5-------------------------------------|
D|---------3---3---|-------3---3---3-----------------------------------------|
A|---3h5---------5-|-3h5-------------3---------------------------------------|
D|-0-----x---x-----|-----x---x---3-------------------------------------------|
   S S   S P S P S   S   S P S P S P S P

G|-----------------|--------------777765-------------------------------------|
D|---------3---3---|-------3---3--555543-------------------------------------|
A|---3h5---------5-|-3h5-----------------------------------------------------|
D|-0-----x---x-----|-----x---x-----------------------------------------------|
   S S   S P S P S   S   S P S P

G|-----------------|-----------5---7-----------------------------------------|
D|---------3---3---|---3---5-------------------------------------------------|
A|---3h5-----------|---------3---5-------------------------------------------|
D|-0-----x---x---0-|-3---5---------------------------------------------------|
   S S   S P S P S   S P S P S P S P

G|-----------------|-5h7p5--------777765-------------------------------------|
D|---------3---3-7-|-------7---5--555543-------------------------------------|
A|---3h5-----------|---------------------------------------------------------|
D|-0-----x---x-----|---------x-----------------------------------------------|
   S S   S P S P P   P     P S P

Play "Intro" again (0:32)

Verse 2 (0:46)...(same as riff from Verse 1. Play entire riff twice)

End Verse 2 on...
G|-4~--------------|
D|-0~--------------|
A|-----------------|
D|-----------------|

Finger Tapping (1:30)
G|----------9-------9/10~------------9-------9/12~---------------------------|
D|-------10---10----9/10~---------10---10----9/12~---------------------------|
A|----10---------10------------10---------10---------------------------------|
D|-10-----------------------10-----------------------------------------------|

G|----------9-------9/10~------------9-------9/12~---------------------------|
D|-------10---10----9/10~---------10---10----9/12~---------------------------|
A|----10---------10------------10---------10---------------------------------|
D|-10-----------------------10----------------------12\----------------------|

Slapping and Strumming Break (1:44)
G|-----------------555/7-|-----------------87-|
D|-----------------555/7-|-----------------87-| (x10)
A|-----------------333/5-|-----------------65-|
D|-0-0-00--0-0-0-0-------|-0-0-00--0-0-0-0----|
   S S SS  S S S S         S S SS  S S S S

End (3:12)... (play until fade out)
G|-------------------|-------------------------------------------------------|
D|-------------------|-----------------3-------------------------------------|
A|-------3p0-----3h5-|-----3p0-----------------------------------------------|
D|-0-3h5-----3h5-----|-3h5-----3h5-0-0---3-----------------------------------|
   S S   P   S   P     S   P   S   S S P S

G|-------------------|-------------555/7-------------------------------------|
D|-------------------|-------------555/7-------------------------------------|
A|-------3p0-----3h5-|-----3p0-----333/5-------------------------------------|
D|-0-3h5-----3h5-----|-3h5-----3h5-------------------------------------------|
   S S   P   S   P     S   P   S

Well, there it is. Read it, review it and give me some feedback. It's only my second tab
don't be too harsh. If you want to write me my email's at the top.

| /  slide up
| \  slide down
| h  hammer-on
| p  pull-off
| ~  vibrato
| +  harmonic
| x  Mute note
| S  Slap
| P  Pop

=============================================================================
Добавлено: 21.03.2012
Другие материалы по этой песне:
  • Аккорды и текст

Страница создана 21.03.2012
http://primanota.ru/fingersmoran/mana-tree-chords.htm
Привет, Гость.
Предлагаем пройти революционный курс по гитаре.
Подарок от PrimaNota.Ru, забирай!